>
 >
Live Performance Collection

Live Performance Collection Guitar Tabs

Guns N Roses - Live Performance Collection chords, tabs, tablatures, lyrics

Guitar lessons | Add/correct | Request | Top 50 tabs Artists:  A B C D E F G H I J K L M N O P Q R S T U V W X Y Z 0-9

Live Performance Collection Guitar Tabs – Guns N Roses

CD, Sheet music, Poster

Do you like Live Performance Collection? Share with your friends now
Tabs
----------------------------
                                         Guns N' Roses
                               ----------------------------
                                        -Live Tabs-
                               -almost everything done by-
                                       BJÖRN ELSNER

NOTE:
GnR are the "Improvisers" *lol* -  this means,
they play their songs always a bit different in
Concerts-or they cover songs,that aren't released
as GnRCoversong.So i've tabbed the Most important Changes
of some GnRstuff that they played live.So...enjoy!

INCLUDING:
1.)Knockin On Heavens Door (live in Tokio 1992/aviable on live era)
2.)Knockin on Heavens door (live in Rio de Janero/aviable on Rock In Rio III)
3.)Wild Horses (live in Paris/unreleased)*
4.)Wild Horses (live in Tokio 1992 /aviable on live era)*
5.)Bring it on home (live arranged by Slash & led Zeppelin)*
6.)Welcome To The Jungle (complete Version)*



1.)Knockin On Heavens Door
   originally Recorded by B.Dylan
   Played live on"Live Era"

till the first solo everything is played like studio Version.
But the first guitarsolo has some changes:
----------------------------------------------------------
---------------15-------------------------15bf--13p12h13--
-12-14b-12-14----14b~~~~f-12h14p12-----12-----------------
------------------------------------14--------------------
----------------------------------------------------------
----------------------------------------------------------

---------------------------15-----------15-17bbbbbbf--15--
-15-13p12h13-12-----12-13-----13-12--17-------------------
----------------------------------------------------------
----------------14----------------------------------------
----------------------------------------------------------
----------------------------------------------------------

--20-20p19-20--19-20--20-20-20---~~~~~--------------------------------
-------------------------------17-------------------------------------
---------------------------------------19b19b19b19b-------------------
---------------------------------------------------19b19b19b19b-------

Then there follows anothere Verse and the 2nd solo which is very hard and only(!)
a question on improvising the original solo.Before Axl sings with the Audience there
is a part where only guitar,piano and the drums play the melody only as a pattern.
This paret goes like this:(very staccatto!)
-------------------------
-------------------------
--------7-7----5-5-5/7-5- this part is played sometimes,
-5-5----7-7----5-5-5/7-5- until axl sings the chorus with the audience
-5-5----5-5----3-3-3/5-3-
-3-3---------------------

then there follows the famous Reggae-Part after Axl shouts"Gimme some Reggae!!"
This Part is as double as fast as the main Rhythm.Play it with full Time Reggae 
feeling!!!

---------------------------------
---------------------------------
----------19-x-19--17-x-x-x-x-x--
-17-x-17--19-x-19--17-x-x-x-x-x--
-17-x-17--17-x-17--15-x-x-x-x-x--
-15-x-15-------------------------






2.)Knockin' On Heavens Door
   originally recorded by B.Dylan
   played live at Rock In Rio-Festival 2001


Intro:
clean Guitar
|------------------------0-0---h3-(3p0)-----3--------0h2--------|
|---------------/5-------1-0h1----(0-0)-------3---------3-------|
|----------------/7-----h2----------------------0---------5-5-5-|
|-----/5----------/7----h2------------------------0-0-----5-5-5-|
|------/5-----5----(5)------------------------------------3-3-3-|
|--3----(3)------------------------------3-3--------------------|

Then there follows a part that is exactly like in the Bob Dylan
Original Song(This part is repeated during the whole song):
|-----3---------2-----0-0---h3-(3p0)--3-----2-----0-|
|-----3---------3-----1-0h1----(0-0)--3-----3-----1-|
|-----0---------2-----2---------------0-----2-----0-|
|-----0-----0-0-0-----2---------------0-----------2-| 2 times
|-----2-------------------------------2-----------3-|
|-3-3-3-------------------------------3-----------0-|
  Uhhhhhhhhh Uhhhh  Uhhhhh        UhhhhhhhUhhhh Uhh

Fill 1
--------
---10br-
--------
--------
--------
--------

Then Verse 1:
 G    D                 Am 
MAMA TAKE THIS BADGE FROM ME
  G    D           C
I CAN'T USE IT ANYMORE
  G    D                      Am
IT'S GETTING DARK TOO DARK TO SEE  (Fill 1)
  G    D                            C
FEELS LIKE I'M KNOCKING ON HEAVEN'S DOOR

CHORUS (ith light disorted guitar)
  G    D                       Am 
KNOCK KNOCK KNOCKING ON HEAVENS DOOR
  G    D                       C   
KNOCK KNOCK KNOCKING ON HEAVENS DOOR
  G    D                       Am 
KNOCK KNOCK KNOCKING ON HEAVENS DOOR
  G    D                       C    
KNOCK KNOCK KNOCKING ON HEAVENS DOOR

THE "Uhhh Part" 2 time

VERSE 2:
MAMA PUT MY GUNS (IN)TO GROUND
I CAN'T SHOOT THEM ANYMORE
THAT DARK BLACK CLOUD IS COMING DOWN
IT FEELS LIKE I'M KNOCKING ON HEAVENS DOOR

 
CHORUS
KNOCK KNOCK KNOCKING ON HEAVENS DOOR
KNOCK KNOCK KNOCKING ON HEAVENS DOOR (Fill 1)
KNOCK KNOCK KNOCKING ON HEAVENS DOOR
KNOCK KNOCK KNOCKING ON HEAVENS DOOR
SOLO (I'm not really sure bout this solo.But it's a good
      pattern...and it is played VERY slow and slideful!)
----------10~~~-9-7-9-10---7b9b10-10-9-7-9b--7-5-4-5----5b--
-7h9/10~~----------------9---------------------------5----5b
------------------------------------------------------------
------------------------------------------------------------
------------------------------------------------------------
------------------------------------------------------------

-5-6-5-6-----------5-7-8/10-8-7-
---------8-6--8-6---------------
--------------------------------
--------------------------------
--------------------------------
--------------------------------

KNOCK KNOCK KNOCKING ON HEAVENS DOOR(C'mon People)
KNOCK KNOCK KNOCKING ON HEAVENS DOOR
KNOCK KNOCK KNOCKING ON HEAVENS DOOR(we gonna keep this one follow me)
KNOCK KNOCK KNOCKING ON HEAVENS DOOR(allright now)
KNOCK KNOCK KNOCKING ON HEAVENS DOOR
KNOCK KNOCK KNOCKING ON HEAVENS DOOR(you gonna follow me with this one people?)
KNOCK KNOCK KNOCKING ON HEAVENS DOOR
KNOCK KNOCK KNOCKING ON HEAVENS DOOR
KNOCK KNOCK KNOCKING ON HEAVENS DOOR(allright)
KNOCK KNOCK KNOCKING ON HEAVENS DOOR(yeah)
KNOCK KNOCK KNOCKING ON HEAVENS DOOR
KNOCK KNOCK KNOCKING ON HEAVENS DOOR
KNOCK KNOCK KNOCKING ON HEAVENS DOOR
KNOCK KNOCK KNOCKING ON HEAVENS DOOR

"Uhh Part"
Outro (same as Intro)




3.)Wild Horses 
   originally recorded by the Stones
   played live in Paris



                          *Repeat the Am to G sequence
                           twice 
G                         * Am
-------------------------------------------------------
-----------------------------15--15--15-~~------15--15-
-----------------------------16--16--16-~~------16--16-
-------------------------------------------------------
-------------------------------------------------------
-------------------------------------------------------

                                G  *
-------------------------------------------------------
--15-----15--15--15s13--13--12--12~~~~~~---------------
--16-----16--16--16s14--14--12--12~~~~~~---------------
-------------------------------------------------------
-------------------------------------------------------
-------------------------------------------------------

                     Bm         
                      grad. bend
-------------------------------------------------------
-------------------------------------------15----------
--14b16---(16)r14p12---14b16~~~~~-----(16)---(16)r14p12
-------------------------------------------------------
-------------------------------------------------------
-------------------------------------------------------


           G 
-------------------------------------------------------
-------------------------------------------------------
---14------12--14--12~~~~~~-------14b16--r14p12--------
-------14----------------------------------------------
-------------------------------------------------------
-------------------------------------------------------


     Bm                                       G 
-------------------------------------------------------
----------------------15-------------------------------
--14b16~~~~~------(16)--(16)r14p12--14--12---14b16-----
-------------------------------------------------------
-------------------------------------------------------
-------------------------------------------------------


                                        Am
-------------------------------------------------------
--15~~~--15b17--15-12-15-12----------------13p12--13p12
---------------------------14b16r14p12-14~~------------
-------------------------------------------------------
-------------------------------------------------------
-------------------------------------------------------


        C
-------------------------------------------------------
-13p12-------------------------------------------------
-------12-----------------------------12-14--(16)r14p12
----------12h14~~~~~-----------12h14-------------------
------------------------13h14--------------------------
-------------------------------------------------------


     G                                    D       
-------------------------------------------------------
-----------------15------------------------------------
--14b16~~~~~--------14b16--14b16--14-12----12h14~~~~~--
----------------------------------------14-------------
-------------------------------------------------------
-------------------------------------------------------


     Bm
-------------------------15----------
----17b19--17b19~~~~~--------15b17---
-------------------------------------
-------------------------------------
-------------------------------------
-------------------------------------

    G
-------------------------15------------------------------------------
---15~~~-12---15------------15------------------------12-15----------
-----------------14b16--------14b16r14-12-------12-14------14b16--14-
------------------------------------------12h14----------------------


        Bm
-------------------------------------------------------
---12-------------12------12------12-----12------12----
-------14b16~~~-----14b16---14b16---14b16--14b16---14b16
-------------------------------------------------------
-------------------------------------------------------
-------------------------------------------------------


                          G  
-------------------------------------------------------
-12----------------------------------------------------
---14b16--14b16r14p12-----12-----12------12------------
----------------------14------------12h14----12~~~~~---
-------------------------------------------------------
-------------------------------------------------------


                        Am
-------------------------------------------------------
--13s15-----13--12--13--12h13p12-----12----------------
---------------------------------14-------14--14~~~~---
-------------------------------------------------------
-------------------------------------------------------
-------------------------------------------------------


               C
---------------------------------12--------------------
-------------------------12--15------15--13h15p13p12---
----12h14p12-----------------------------------------14
--------------14~~~~~----------------------------------
-------------------------------------------------------
-------------------------------------------------------


                        G
-------------------------------------------------------
---12--------------------------------------------------
-------14b16r14--12--14b16~~~~~-------14b16r14--12-----
-------------------------------------------------------
-------------------------------------------------------
-------------------------------------------------------

                                        Bend 3/4 step on
                        D               17th fret... 
------------------------------------------17--15--17b19
------------------12-----------------------------------
----------12--14------14~~~~~--------------------------
---12h14-----------------------------------------------
-------------------------------------------------------
-------------------------------------------------------


   Am
--17b19---17b19--17b19--17--15--15~~~~----15---17b18r17
-------------------------------------------------------
-------------------------------------------------------
-------------------------------------------------------
-------------------------------------------------------
-------------------------------------------------------


                C
-17--15----15h17--15~~~----------------------------------
--------17--------------15s17---13s15------------------
---------------------------------------14b16r14p12--14-
-------------------------------------------------------
-------------------------------------------------------
-------------------------------------------------------


        G                            F  
-------------------------------------------------------
------------------------15--------15-------------------
--12----12~~~---14--12-----14b16------14~~~~-----------
-------------------------------------------------------
-------------------------------------------------------
-------------------------------------------------------


                C
-------------------------------------------------------
-------------------------------------------------------
--14b16r14p12-----12~~~~--------11h12p11s9~~~~----------
---------------14----------------------------------------
-------------------------------------------------------
-------------------------------------------------------


                                              Am
-------------------------------------------------------
-------------------------------------------------------
--7h9p7s5~~~----5h7p5s4~~~~---5---4--5-----4-----------
----------------------------------------7------7--7~~~-
-------------------------------------------------------
-------------------------------------------------------


                        C
-------------------------------------------------------
-------------------------------------------------------
--4-------5---4---7--5---5s9~~~~~---9--7--9--9s12~~~~--
------7------------------------------------------------
-------------------------------------------------------
-------------------------------------------------------


G                               F
-------------------------------------------------------
----------12-13-15---12-13-15--12-13-15--13b15-13------
--12--14-----------------------------------------------
-------------------------------------------------------
-------------------------------------------------------
-------------------------------------------------------


                                        C
-------------------------------------------------------
---12h13p12-------12---------15------------------------
--------------14------14b16-----16r14p12----14--12-----
-----------------------------------------14------------
-------------------------------------------------------
-------------------------------------------------------


-------------------------------------------------------
-------------------------------------------------------
---------12----------------------------------12--14----
--12h14-------------12---------------12--14------------
-------------12h14------12s10--12s14-------------------
-------------------------------------------------------

                        G
-------------------------------------------------------
--15---------------------------------------------------
------14b16-r14----12----14--12~~~~~-------------------
----------------------14-------------------------------
-------------------------------------------------------
-------------------------------------------------------

Let ring out...
------3------------------------------------------------
--1-------0--------------------------------------------
--------------2b4r2--0----------0----------------------
------------------------0--0h2----------0--------------
-----------------------------------0h2-----------------
--------------------------------------------3----------




4.)Wild Horses
   originally recorded by the Stones
   played live in Tokio 1992
   (aviable on live era)

G                       Am                           G
------------------------------10-10-10--10-10-10\8-8-7~
------------------------------10-10-10--10-10-10\8-8-8~
-----------------------------------------------------7~
-------------------------------------------------------
-------------------------------------------------------
-------------------------------------------------------

        Am                                    G
--------------10-10-10--10-10-10-10-10-10\8-8-7~-------
--------------10-10-10--10-10-10-10-10-10\8-8-8~-------
----------------------------------------------7~-------
-------------------------------------------------------
-------------------------------------------------------
-------------------------------------------------------

                  Bm                         G
---------------------------10--------------------------
-------10fb--8---10fb---------10fb--8---8h10-8~~-------
---------------9----------------------9----------------
-------------------------------------------------------
-------------------------------------------------------
-------------------------------------------------------

                 Bm                     G
-------------10-----------10---------------------------
----10b--8------10b----------10b--8---10/12~~----------
-----------9------------------------9------------------
-------------------------------------------------------
-------------------------------------------------------
-------------------------------------------------------

                     Am                         C
---10------10-------------------8p7-8p7-8p7------------
-------10b-----10b---10~~-------------------8----------
----------------------------------------------7h9~~----
-------------------------------------------------------
-------------------------------------------------------
-------------------------------------------------------

                              G                      D
-------------------------------------------------------
----------8--10fb--8---10/12-12~~---13p12-13p12-13--12-
------7h9------------9---------------------------------
--7h9--------------------------------------------------
-------------------------------------------------------
-------------------------------------------------------

                     Bm               G
------------------------------15-----------------------
--12\10-10-10~~-----17fb-17fb----15b-15~~--13h15p13----
---------------------------------------------------14b-
-------------------------------------------------------
-------------------------------------------------------
-------------------------------------------------------

                     Bm
-------------------------------------------------------
--------------------15b---------------------15---------
-12h14-12----12~~---14b-14b--14b-14b--14b-14b--14b-14b-
----------14-------------------------------------------
-------------------------------------------------------
-------------------------------------------------------

         G                                      Am
-----------------------------------15-----15-----------
--------------------------------------15b----15rb15b---
--12-----12~-12----12-14-12-12~~-----------------------
------14--------14-------------------------------------
-------------------------------------------------------
-------------------------------------------------------

                        C
-------------------------------------------------------
-15rb--13p12-13p12---------------------12-15-----12----
-------------------12----------12-14b--------14b-------
----------------------12h14~~--------------------------
-------------------------------------------------------
-------------------------------------------------------

                  G
-------------------------------------------------------
-12------------------15--15-----15--15-15-------------
----14p12------14/16---16--16-16--16----16\14-14-12-14~
----------14-------------------------------------------
-------------------------------------------------------
-------------------------------------------------------

  D                                 Am
-------------------------------------------------------
-------------------------------15--15------------------
-14~~-------------12h14--14/16---16--16-16-14-14~~-----
------------12h14--------------------------------------
------13h14--------------------------------------------
-------------------------------------------------------

                                 C
-------------------------------------------------------
------17-17-17-15--15\13-13\12-12\10-10\8--8h10-10-----
--14---------------------------------------------------
-------------------------------------------------------
-------------------------------------------------------
-------------------------------------------------------

                      G                         F
-----10----------10b-10-8------------8-----------------
10/12--12\10-10-8---------10--8h10-10--10-8-8-10-8-10~~
-------------------------------------------9-----------
-------------------------------------------------------
-------------------------------------------------------
-------------------------------------------------------
                                        Couldn't drag 

           C                                         Am
-----10------------------------------------------------
-8h10---10b--8h10-8-8~~-3h5-3h5-3h5-3h5-3h5-3h5-3h5-3h5
-------------------------------------------------------
-------------------------------------------------------
-------------------------------------------------------
-------------------------------------------------------
me away

                   C
-----3-5-5/7~------7-8--10-8-7-10-8-7-10-8-7--12-10-8--
-3-5---------------------------------------------------
-------------------------------------------------------
-------------------------------------------------------
-------------------------------------------------------
-------------------------------------------------------
        Wild, wild horses
           G                    F            C
-------------------------------------------------------
-12-10--8-12-10-8-8-7-8~-8-7-7h9p7-5-7-5-3-5-3---------
-----------------------------------------------5-4-5~~-
-------------------------------------------------------
-------------------------------------------------------
-------------------------------------------------------
                        Couldn't drag me away



5.)Bring It on Home
   originally played by Willie Dixon
   Arranged by Slash and Led Zeppelin
Intro: 
|-----------------------|
|-----------------------|
|-----------------------| Repeat a few times
|-----------------------|
|-2-2--4-4--2-2-------2-|
|-0-0--0-0--0-0-0-3h4---|



   M a i n - R i f f 
|--------------------------|
|--------------------------|
|-------------4--2-1-2-1---| 
|-----0-2----------------2-|
|-0-2----------------------|
|---------0----------------|
  
 


Lyrics

Intro:
Baby,
Baby,
Gonna bring it on home to you.
I've got my ticket, I've got that load.
Got up, gone higher, all aboard.
Take my seat, right way back.
Ooh, yeah,
Watch this train roll down the track.
Gonna bring it on home,
Bring it on home to you.
Watch out, watch out.

Verses:
Try to tell you, baby,
What you tryin' to do?
Tryin' to love me, baby,
Love some other man, too.
Bring it on home,
Bring it on home.

Went a little walk downtown,
Messed and got back late.
Found a little note there waitin'.
It said, "Daddy, I just can't wait."
Bring it on home,
Bring it back home,
Bring it on home,
Bring it back home to me, baby.

Tell you, pretty baby,
Love to mess me 'roun'.
I'm gonna give you lovin', baby,
Gonna move you out of town.
Bring it on home,
Bring it on home.

Sweetest little thing
Daddy ever saw.
I'm gonna give you lovin', baby,
I'm gonna give you more.
Bring it on home,
Bring it on home,
Bring it on home,
Oh, yeah.

Outro:
Bring it on home,
Bring it on home to you.



6.)The COMPLETE VERSION of
   Welcome to the Jungle
   written by GnR

how to get the sound of the intro:

* set your delay repeats to 4-5 
* set your delay time to follow the tempo (around 2-3 ms)
* plug your delay pedal BEFORE your disortion pedal
* put your distortion at the max
* mute all the strings with your right hand
* put your hand on the fretboard and loop this tablature fast:

Don't be afraid of the speed, you just need to find the best way for you
to attack strings with your pick up or down.

Intro: Gtr.1 w/delay (see recomendations at bootom):
                                /-----call this Riff A------\
E|-----------------------------|-----------------------------|
B|-----------------------------|-----------------------------|
G|---4-------4---------4-4-4---|--4--4-2--2-----------------:|
D|-----------------------------|------------4--4-2--2--0----:|
A|-----------------------------|--------------------------2--|
E|-----------------------------|-----------------------------|
  \--------only once----------/ \----repeat this 2 times----/

Guitar 2 & 3 starts here, with Gtr. 1 Riff A seven more times
               (Play Guitar 1 Riff A until the last E5 chord)

Gtr.2: Play these Power chords B5 A5 G5 E5 B5 A5 E5            \
                                                               / 
     B5       A5         G5      E5      B5   A5  E5 D5  A5    \
E|----------------------------------------------------------|  /
B|----------------------------------------------------------|  \
G|---4--4--------------------------------4------------7-----|  /
D|---4--4-----7--7-------5--5----2--2----4----7---2---7--7--|  \ play this,
A|---2--2-----7--7-------5--5----2--2----2----7---2---5--7--|  / riffs at
E|------------5--5-------3--3----0--0---------5---0------5--|  \ the same
                                                               / time in
Gtr.3:                                                         \ guitar
E|--------------------------------------7--7/5--5-0---------|  / 1, 2 & 3
B|--------------------------------------7--7/5--5-0---7--5--|  \
G|------------7-9-9fb---7qb---------------------------7--6--|  /
D|---7h9--9-------------------7h9--9s2----------------7--7--|  \
A|-------------------------------------------------------0--|  /
E|----------------------------------------------------------|  \


Gtr.2: (faster Gtr 2. & 3 => Tempo=124)
     B5        B5      B5      B5       B5     B5   B5     \
E|------------------------------------------------------|  /
B|------------------------------------------------------|  \
G|---4---------4-------4-------4--------4------4----4---|  /
D|---4---------4-------4-------4--------4------4----4---|  \ 
A|---2---------2-------2-------2--------2------2----2---|  / play this
E|------------------------------------------------------|  \ riffs at the
                                                           / same time
Gtr.3:                                                     \ in both
E|-------------------------------------5--5-------------|  / guitars
B|-----------------------3---5-----5hb----5hb---3-------|  \
G|----------------2--4------------------------------4\--|  /
D|---------2--4-----------------------------------------|  \
A|--2--4------------------------------------------------|  /
E|------------------------------------------------------|  \

Verse (same time in guitar 1, 2 & 3)

Gtr.1:    P.M.     P.M.                       Palm mute    \
E|--------------------------|---------------------------|  /
B|--------------------------|---------------------------|  \
G|--2------2--2--0----------|--2-x-x-----2-2--0---------|  /
D|--2------2--2--0----------|--2-x-x-----2-2--0---------|  \ 
A|--0------0--0-----------0-|--0-x-x-----0-0----------0-|  /
E|----3hb-----------3--2----|--------3hb--------3--2----|  \
                                                           / Play this
Gtr.2:                                                     \ two times
E|--------------------------|---------------------------|  /
B|--------------------------|---------------------------|  \
G|--------------------------|---------------------------|  /
D|--------------------------|---------------------------|  \
A|-7--7--5--7--7--7-5--4--2-|-7--7--5--7--7--7--5--4--2-|  /
E|-5--5--3--5--5--5-3--2--0-|-5--5--3--5--5--5--3--2--0-|  \
                                                           /
Gtr.3: play an A barrechord over main riff                 \

Gtr.1:                                                                     \
E|--------------------x--5--------------------|-------------------------|  /
B|--------------------------------------------|-------------------------|  \
G|---2-----------x----------------------------|--2-x-x-----2-2--0-------|  /
D|---2-----------x----------------------------|--2-x-x-----2-2--0-------|  \ 
A|---0-----0-----x------------------3p0-------|--0-x-x-----0-0--------0-|  /
E|----------------------------------------2---|--------3hb--------3-2---|  \
                                                                           / Play this
Gtr.2:                                                                     \ one time
E|--------------------------------------------|-------------------------|  /
B|--------------------------------------------|-------------------------|  \
G|-7fb5-----7--5hb----------------------------|-------------------------|  /
D|-------7---------7-5------------------------|-------------------------|  \
A|----------------------7--6--5\3--5--3-------|-0-0-----0-0-------------|  /
E|---------------------------------------5--3-|-----3hb-----3hb--2--0-0-|  \
                                                                           /
Gtr.3: play an A barrechord over main riff                                 \

In the part ‘We are the people that can find...’ play:

Gtr.1:    P.M.     P.M.                       Palm mute    \
E|--------------------------|---------------------------|  /
B|--------------------------|---------------------------|  \
G|--9--9--7-x-9--9----------|--2-x-x-----2-2--0---------|  /
D|--9--9--7-x-9--9--7--6--4-|--2-x-x-----2-2--0---------|  \ 
A|--7--7--5-x-7--7--5--4--2-|--0-x-x-----0-0----------0-|  /
E|--------------------------|--------3hb--------3--2----|  \
                                                           /
Gtr.2:                                                     \
E|--------------------------|---------------------------|  /
B|--------------------------|---------------------------|  \
G|--------------------------|---------------------------|  /
D|--------------------------|---------------------------|  \
A|-7--7--5--7--7--7-5--4--2-|-7--7--5--7--7--7--5--4--2-|  /
E|-5--5--3--5--5--5-3--2--0-|-5--5--3--5--5--5--3--2--0-|  \
                                                           /
Gtr.3: play an A barrechord over main riff                 \

chorus:
          C   C/B  C/A    C/G       D     D/C#     D/B      D/A
In the jun-gle,  wel-come to the jun-gle watch it bring you to your
E|----------------------------------------------------------------|
B|----------------------------------------------------------------|
G|--------5-------------------------7-----------------------------|
D|--------5-------------------------7-----------------------------|
A|--------3----2--------------------5------4----------------------|
E|------------------5------3-----------------------7---------5----|

   E5
        sha na na na na na...
E|-------------------------------|
B|-------------------------------|
G|--9--9-------------------------|  three
D|--9--9-------------------------|  times
A|--7--7--5----------------------|
E|-----------6--6--6\5--5--3--0--|

And then: I wanna watch you bleed
E|-----------------------------------------|
B|-----------------------------------------|
G|-----------------------------------------|
D|-----------------------------------------|
A|--------7----5---------------------------|
E|-----------------------6------5---3---4--|

 Solo 1 (w/ad lib vocals):
|------------------------------------------------------------------------|
|----------------------------------12-----------15~--------------15--15~~|
|--12/13-------------13---13~(13)--12--13-x-x---16~--12/11-------13--13~~|
|--11/12-----(12)-14-14---14~(14)------14-x-x--------13/12---------------|
|------------------------------------------------------------------------|
|---------0------------------------------------------------0--0----------|

|--------------------------15--15--------------19fb----19-18-17fb--15-16-|
|~~~(15)p12---14/15--------15--15-----------17---------------------------|
|~~~(13)------15/16----------------6/0--/18------------------------------|
|------------------------------------------------------------------------|
|------------------------------------------------------------------------|
|------------------------------------------------------------------------|

|------------------------------------------------------------------------|
|-15~---(15)\---15fb--(15)-15p12-----------------------------------------|
|---------------------------------14fb--14hb(14)p12--14-12---------------|
|-----------------------------------------------------------14-14--------|
|-----------------------------------------------------------------13-13--|
|------------------------------------------------------------------------|

|--------------------------A.H.------------------------------------------|
|------------------------------------------------------------------------|
|--------------------------8hb-------------------------------------------|
|----------------------------------------------11\-----------------------|
|-12fb-(12)p10-----------------------------------------------------------|
|---------------12-------------------------------------------------------|

 After chorus come this:
   D          G                    D                G
|-------------3-----(3)\-------------------------------------------------|
|--7----------3-----(3)\---6hb-----7---8p7----------12--13p12----------8-|
|--7----------4-----(4)\---4hb-----7---7------------12---------7\5--5----|
|--7----5-----5-----(5)\-----------7---7----7---10--12-------------------|
|--5----3-----5-----(5)\-----------5-------------8--10-------------------|
|-------------3-----(3)\-------------------------------------------------|

 D                     G                        D                 D7
     And when...     high    you never              ever want to come down
|------------------------------------------------------------------------|
|-7-------------------12---13p12---------10\7---7------------------------|
|---7-----------------12------------------------7------------------------|
|-----7--6--7----10---12---------12p10---10\7---7-----------------10-----|
|-----------------8---10-------------------------------------------8-----|
|------------------------------------------------------------------------|

G        F     G     F     G     F    A                E (hold chord)
       suck  down  suck  down  suck  down              Yeah!

 Pre-solo:
|------------------------------------------------------------------------|
|------------------------------------------------------------------------|
|-------6/7-------------9-------9-----9---6/7------------------12---12---|
|-------5/6-------------9-------9-----9---5/6------------------12---12---|
|------------------------------------------------------------------------|
|---0---------0----0---------0-------------------0-------0---------------|

|------------------------------------------------------------------------|
|------------------------------------------------------------------------|
|-------6/7-------------9-------9-----9---6/7------------------12---12---|
|-------5/6-------------9-------9-----9---5/6------------------12---12---|
|------------------------------------------------------------------------|
|---0---------0----0---------0-------------------0-------0---------------|

 Solo 2:
|--------------------------------------------------------------------------|
|--------------------------------------------------------------------------|
|-----------------------------------------------9hb-----------11fb--(11)---|
|---------------------------------9-9hb-11-(11)---------11-----------------|
|--------7----9fb--(9)----7-7-9/11-----------------------------------------|
|--9--------9--------------------------------------------------------------|

|----------------------------------------------------------------------0---|
|-------------------------------12-(12)-------12--------------------5--5---|
|--(11)----11fb(11)p9-----9hb---11-(11)-------11-(11)p9------------6-6-----|
|----------------------11-------------------------------11-9-(9)/6---------|
|--------------------------------------------------------------------------|
|--------------------------------------------------------------------------|

|--(0)--0--0--0------------------------------------------------------------|
|--(5)--3--2--0---2hb--2hb--0----0----0--(0)--0--0--0--0--2--4-------------|
|-----------------2hb--2hb--0--1-1--2-4--(4)--4--2--2--1--2--4-------------|
|---------------------------------------------------------4--4--2fb(2)p0-2-|
|--------------------------------------------------------------------------|
|--------------------------------------------------------------------------|

|--------------------------------------------------------------------------|
|---------15-15fb-(15)-15fb(15)--------------------------------14\12-------|
|-/4----------------------------14fb-14fb--14fb(14)p12----------------6hb--|
|-/4--/12-----------------------------------------------14-12--14\12-------|
|--------------------------------------------------------------------------|
|--------------------------------------------------------------------------|

|--------------------------------------------------------------------------|
|--------------------------------------------------------------------------|
|--(6)--4------------------------------------------------------------------|
|----------6hb------4------------------------------------------------------|
|---------------------4-(4)--2---------------------------------------------|
|------------------------------4hb----0--2----------------------------(2)--|

Finish this way:
    E5  D5   B5  A5  G5  E5   A   G   E       E7#9  
|----------------------------------------------3-----(3)\----------------|
|----------------------------------------------3-----(3)\----------------|
|---9---7---------------------6---4---1--------1-----(1)\----------------|
|---9---7----8----7---5-------7---5---2--------2-----(2)\----------------|
|---7---5----8----7---5-------7---5---2--------2-----(2)\----------------|
|------------6----5---3---0---5---3---0--------0-----(0)\*---------------|
                                              * Slowly detune low E string





Comments


Popular Guns N Roses tabs & chords
I Used To Love Her Bass Tabs
Rocket Queen 2 Bass Tabs
Estranged Chords
You Cant Put Your Arms Chords
Ain't It Fun Tabs
Don't Cry Tabs
My Michelle Intro Tabs
November Rain 1 Tabs
Prostitute Tabs
Civil War Ukulele


Song lyrics



↑ Back to top | Tablatures and chords are parodies/interpretations of the original songs. You may use it for private study, scholarship, research or language learning purposes only
© 2014 AZChords.com Contact us | Privacy policy | DMCA | Add/correct tabs | Request tabs | Top 50 tabs