» » »

Live And Let Die Bass tabs (ver.4)

Artists:  A B C D E F G H I J K L M N O P Q R S T U V W X Y Z # 

Live And Let Die Bass tabs (ver.4)

Guns N Roses
Rating:
0/5 (0 votes)

Hard to play? Try these video lessons and learn fast.
                *************
I figured I'd do my own version of Live and let die by Guns N Roses, since the 
other versions are far off to be quite honest. 
This is as close as it gets for now.
Enjoy
*************

Guns N Roses - Live and Let die

Intro 0:0 sec
 G|------------2/-6---------------------------------------------------------|
 D|---------------------------------------------------3-4---6------11-13-14r|
 A|-------1---2-----------1---2---4-------1---2--------------4r-------------|
 E|---2---------------2---------------2-----------4-------------------------|


"... Live and let die..."

 G|-------------------------------------------|
 D|---------------4---------------------------|
 A|-------2---3-------------2---3-------------|
 E|---2-----------------2---------------------|


1/8 tempo

 G|-------------------------------------------|
 D|-------------------------------------------| x about 20 times
 A|-------------------------------------------|
 E|---2-2-2-2-2-2-2-2-2-----------------------|


Funky piece 

 G|---------------------------------------------------------------|
 D|---------------------------------------------------------------|
 A|---2-2---0-2---------------1-2-3-4-4---4-----4-4---6-7r--------|
 E|-------------0-1-2-2-0-0-2-----------4---4-4-------------------|


1/8 tempo

 G|-------------------------------------------|
 D|-------------------------------------------| x about 8 times
 A|-------------------------------------------|
 E|---2-2-2-2-2-2-2-2-2-----------------------|


Slow, quiet part

 G|-------------------------------------------------------------------------|
 D|---------------------------------------------------3-4---6------11-13-14r|
 A|-------1---2---4-------1---2---4-------1---2---------------4r------------|
 E|---2---------------2---------------2-----------4-------------------------|


"... Live and let die..."

 G|-------------------------------------------|
 D|---------------4---------------------------|
 A|-------2---3-------------2---3-------------| 
 E|---2-----------------2---------------------|


1/8 tempo

 G|-------------------------------------------|
 D|-------------------------------------------| x about 20 times
 A|-------------------------------------------|
 E|---2-2-2-2-2-2-2-2-2-----------------------|


END and hold
 G|-----7r-------------|
 D|--------------------|
 A|--------------------|
 E|--------------------|
            
Hard to play? Try these video lessons and learn fast. | Correct




comments powered by Disqus
↑ Back to top | Tablatures and chords are parodies/interpretations of the original songs. You may use it for private study, scholarship, research or language learning purposes only