» » »

Guns N Roses, Live And Let Die Bass tabs (ver.1)

Artists:  A B C D E F G H I J K L M N O P Q R S T U V W X Y Z # 

Live And Let Die Bass tabs (ver.1)

Guns N Roses Tabs
Rating:
0/5 (0 votes)
Live And Let Die lessons Tabs too difficult? Try these video lessons and learn fast
                
Guns N Roses remade this song, of which was orginaly made by Paul McCartney.
This song has a nice multiculteral sound. Enjoy!

G|---|
D|---|
A|---|
E|-2-| x37

G|------|
D|--345-|
A|------|
E|------| x1

G|----------------------------------------|
D|----------------------------------------|
A|----------------------------------------|
E|--2--3--2--3--2--3--2--3----------------|

Right here it starts to get hard, shape and intence (the sound)

G|--------------------|-----------4-5-------------|
D|--3-4-5--3-4-5------|--3-4-5--3-----------------|
A|----------------22--|----------------22---------|
E|--------------------|---------------------------| x2

Mini drum solo

Some weird thing comes in at 1:05
   p p p p p      p p p p p    p p p p p      p     p p p      p
G|-3-4-5-4-3---|--3-4-5-4-3--|-5-6-7-6-5---|--5*-|--5-6-7-8--|-8*-|
D|-------------|-------------|-------------|-----|-----------|----|
A|-------------|-------------|-------------|-----|-----------|----|
E|-------------|-------------|-------------|-----|-----------|----|

Now it goes into a jamician beat 1:21
   p    p   p   p   p   p       p     p p p p p p          
G|-------------------------|-------|---------------|---------|
D|--8*--8*--8*--8*--8*--8*-|--8-7*-|--8-7-6-5-6-5--|--7-6-5--|
A|-------------------------|-------|---------------|---------|
E|-------------------------|-------|---------------|---------|

And at 1:32 it goes back into the cource
G|--------------------|------------4-5------------|
D|--3-4-5--3-4-5------|--3-4-5--3-----------------|
A|----------------22--|----------------22---------|
E|--------------------|---------------------------| x2

Goes back onto a beat used before at 1:49
G|----------------------------------------|     G|--4-5-6--|
D|----------------------------------------|     D|---------|
A|----------------------------------------|     A|---------|
E|--3--2--3--2--3--2--3--2----------------| x2  E|---------|

Starts to change attitude at 2:21
G|----------------------------------------|
D|----------------------------------------|
A|----------------------------------------|
E|--2--3--2--3--2--3--2--3----------------|

And back to the cource at 2:34
G|--------------------|------------4-5----|
D|--3-4-5--3-4-5------|--3-4-5--3---------|
A|----------------22--|---------------22--|
E|--------------------|-------------------| x2

Higher Pitch at 2:46
G|-------------------|------------8-9----|
D|--7-8-9--7-8-9-----|--7-8-9--7---------|
A|----------------66-|---------------66--|
E|-------------------|-------------------| x3

Enjoy, and please rate!

________________________
|  p=pop               |
|  *=let ring          |
------------------------
            

comments powered by Disqus
↑ Back to top | Guns N Roses Bass for Live And Let Die. Lyrics for acoustic guitar and electric guitar. Tablatures and chords are parodies/interpretations of the original songs. You may use it for private study, scholarship, research or language learning purposes only