» » »

Guns N Roses, Knockin On Heavens Door Solos Tabs (ver.1)

Artists:  A B C D E F G H I J K L M N O P Q R S T U V W X Y Z # 

Knockin On Heavens Door Solos Tabs (ver.1)

Guns N Roses Tabs
 Rating:
4/5 (4 votes)
Knockin On Heavens Door Solos lessons Tabs too difficult? Try these video lessons and learn fast
                Knockin on Heavens Door Solos

Guns and Roses


tuned 1/2 step down (capo first fret, then tune normal, then youll have 1/2 step down)

Solo 1 :
e----------------------------------------------------------------|
b-------------------------15----------------------------------12-|
g-12--14bvvr14--12--14bvv----14bvr14-12-12vvvvvvvvvvvvv---/12----|
d----------------------------------------------------------------|
a----------------------------------------------------------------|
e----------------------------------------------------------------|

e----------------------------------------------------------------|
b--15bvvr15vvvvv---13--12--13vbvvvvvv--13--12--13vvv-12----------|
g-------------------------------------------------------12vvvvv--|
d----------------------------------------------------------------|
a----------------------------------------------------------------|
e----------------------------------------------------------------|

e---------15----------------15--17bvvvr17vvvv--17bvvv-15vvvvvv--|
b--12-13------13-12vvv--/15-------------------------------------|
g---------------------------------------------------------------|
d---------------------------------------------------------------|
a---------------------------------------------------------------|
e---------------------------------------------------------------|

e--20bvvv--r20--19-20-19--20bvv---20v-20--20-\12vvvv-----------|
b----------------------------------------------------15brbrbr--|
g--------------------------------------------------------------|
d--------------------------------------------------------------|
a--------------------------------------------------------------|
e--------------------------------------------------------------|

e---------------------/15vvvvvv--|
b--12brbrbrbr--------------------|
g-------------14--12-------------|
d--------------------------------|
a--------------------------------|
e--------------------------------|

Solo 2 :

e--14b(15)vvvvvvr14vvvvv--14vb-12--14--12-12vv--15--14--15--14-----|
b--------------------------------------------------------------15b-|
g------------------------------------------------------------------|
d------------------------------------------------------------------|
a------------------------------------------------------------------|
e------------------------------------------------------------------|

e------------------------------------------17----20b-20p18-|
b---------------------------------------15----17-----------|
g---/14--12--10--12vv--12--10--7----/15--------------------|
d----------------------------------------------------------|
a----------------------------------------------------------|
e----------------------------------------------------------|

e-17-20p18-20-19-20-20b--20-19-20-20b--20-19-20-22b--------22b-22b-|
b---------------------------------------------------20-22b---------|
g------------------------------------------------------------------|
d------------------------------------------------------------------|
a------------------------------------------------------------------|
e------------------------------------------------------------------|

e----------------------------------------------------------------|
b--20-22br-20-22-22b-20-22-20--20vvv--20-19----19br-17-19-17-17--|
g----------------------------------------------------------------|
d----------------------------------------------------------------|
a----------------------------------------------------------------|
e----------------------------------------------------------------|

e-15-14vvvv-14brvv----------------------------------------------------|
b-----------------12vvvv----------------------------------------------|
g--------------------------12v--11vvv-11br-9vvv------7--5/4--0vvvvvvv-|
d---------------------------------------------------------------------|
a---------------------------------------------------------------------|
e---------------------------------------------------------------------|
						             fdback.
            
Submit corrections

comments powered by Disqus
↑ Back to top | Guns N Roses Tabs for Knockin On Heavens Door Solos. Lyrics for acoustic guitar and electric guitar. Tablatures and chords are parodies/interpretations of the original songs. You may use it for private study, scholarship, research or language learning purposes only