» » »

Knockin On Heavens Door Tabs (ver.5)

Artists:  A B C D E F G H I J K L M N O P Q R S T U V W X Y Z # 

Knockin On Heavens Door Tabs (ver.5)

Guns N Roses
Rating:
0/5 (0 votes)

Hard to play? Try these video lessons and learn fast.
                Guns N' Roses: Knockin on Heavevns Door
Tuning: 1/2 step down: eb Ab Db Gb Bb Eb 
Chords: G, D, C, Am

            G            D            C           Am
                                                
         E|-3-|       E|-2-|       E|-0-|       E|-0-|
         B|-3-|       B|-3-|       B|-1-|       B|-1-|
         G|-0-|       G|-2-|       G|-0-|       G|-2-|
         D|-0-|       D|-0-|       D|-2-|       D|-2-|
         A|-2-|       A|-x-|       A|-3-|       A|-0-|
         e|-3-|       e|-x-|       e|-x-|       e|-0-|
         


           Intro:

       G, D, C x4
      
      G         D           C
 
 E|---3---------2---------|-0------------------|
 B|---3---------3---------|-1------------------|
 G|---0---------2---------|-0------------------|
 D|---0---------0---------|-2------------------|
 A|---2-------------------|-3------------------|
 e|---3-------------------|--------------------| x4 


           Verse 1:
     
     G            D                  Am
       Ma-ma, take this badge from me 


     G            D           C
       I can't use it anymore

     G                  D                Am
       It's getting dark, too dark to see

     G                    D                    C
       Feels like I'm knockin on heaven's door


           Chorus:

     G             D                       C 
      Knock knock knockin on heaven's door  hey, hey, hey ,hey ya x4

 Solo 1: 

      G             D             C   
 E|---3-------------2-------------0----------|
 B|---3-------------3-------------1----------|
 G|---0-------------2-------------0----------|
 D|---0-------------0-------------2----------|
 A|---2---------------------------3----------|
 e|---3--------------------------------------| x4


Verse 2:

     G           D                    Am
      Ma-ma, put my guns in the ground
      
     G             D            C
      I can't shoot them anymore

     G                D                   Am
      That cold black cloud is coming down

     G                 D                     C
      Feels like I'm knockin on heaven's door

           Chorus:

     G             D                       C 
      Knock knock knockin on heaven's door  hey, hey, hey ,hey ya x4


Solo 2:
 
      G             D             C   
 E|---3-------------2-------------0----------|
 B|---3-------------3-------------1----------|
 G|---0-------------2-------------0----------|
 D|---0-------------0-------------2----------|
 A|---2---------------------------3----------|
 e|---3--------------------------------------| x6

Then power chords (during phoneand choir part thingy)

      G 
 E|------------------------------------------|
 B|------------------------------------------|
 G|-----------------7-------------5----------|
 D|---5-------------7-------------5----------|
 A|---5-------------5-------------3----------|
 e|---3--------------------------------------| x9

Chorus:

     G             D                       C 
      Knock knock knockin on heaven's door  hey, hey, hey ,hey ya x4

END
            
Hard to play? Try these video lessons and learn fast. | Correct




comments powered by Disqus
↑ Back to top | Tablatures and chords are parodies/interpretations of the original songs. You may use it for private study, scholarship, research or language learning purposes only