» » »

Irs Tabs (ver.2)

Artists:  A B C D E F G H I J K L M N O P Q R S T U V W X Y Z # 

Irs Tabs (ver.2)

Guns N Roses
Rating:
0/5 (0 votes)

Hard to play? Try these video lessons and learn fast.
                (Intro)
E|----------^--------^----------^---------------|
B|---------12--------14--------12--10\9---------|
G|----------------------------------------------|
D|----------------------------------------------|
A|----------------------------------------------|
E|----------------------------------------------|

E|----------------------------------------------|
B|----------------------------------------------|
G|----------------------------------------------|
D|---5--5---7-7-7----8--8---10-10-10\5----------|play 2x
A|---5--5---7-7-7----8--8---10-10-10\5----------|
E|---3--3---5-5-5----6--6----8--8--8\3----------|

E|----------------------------------------------|
B|----------------------------------------------|
G|----------------------------------------------|
D|----------------------------------------------|
A|----------------------------------------------|
E|----------------------------------------------|

E|----------------------------------------------|
B|----------------------------------------------|
G|----------------------------------------------|
D|---5--5---7-7-7----8--8---10-10-10\5----------|play 2x
A|---5--5---7-7-7----8--8---10-10-10\5----------|
E|---3--3---5-5-5----6--6----8--8--8\3----------|

E|------------------------------------------------------------------------|
B|------------------------------------------------------------------------|
G|------------------------------------------------------------------------|
D|---5--5---7--7-7----5--5---7--7-7---8--8---10--10-10----8--8---10--10-10|
A|---5--5---7--7-7----5--5---7--7-7---8--8---10--10-10----8--8---10--10-10|
E|---3--3---5--5-5----3--3---5--5-5---6--6----8---8--8----6--6----8---8--8|


E|----------------------------------------------|
B|----------------------------------------------|
G|----------------------------------------------|
D|----------------------------------------------|
A|----------------------------------------------|
E|----------------------------------------------|

E|----------------------------------------------|
B|----------------------------------------------|
G|----------------------------------------------|
D|---------5--------11--10------8--5------------|play 2x
A|---------5--------11--10------8--5------------| 
E|---------3---------9---8------6--3------------|
            
Hard to play? Try these video lessons and learn fast. | Correct




comments powered by Disqus
↑ Back to top | Tablatures and chords are parodies/interpretations of the original songs. You may use it for private study, scholarship, research or language learning purposes only