» » »

Immigrants And Faots Bass tabs (ver.1)

Artists:  A B C D E F G H I J K L M N O P Q R S T U V W X Y Z # 

Immigrants And Faots Bass tabs (ver.1)

Guns N Roses
Rating:
0/5 (0 votes)

Hard to play? Try these video lessons and learn fast.
                G-----------------------------------
D-----------------------------------
A---------22222222------------------
E-44444444--------22222222-00000-2-4   and keep repeating

Now, since it is so easy, you can make it more fun by adding octaves

G-----------4---4-----------------
D---6---6-----------4---4-2-2-2---
A---------2---2-------------------
E-4---4-----------2---2----0-0-2-4   and keep repeating

If thats too easy, than do this(^ means pull it down sortof)

G----------4-6^------------------
D---6---4------4---4---2-2-2-2---
A----6-4--2---------4-2----------
E-4--------------2--------0-0-2-4
            
Hard to play? Try these video lessons and learn fast. | Correct




comments powered by Disqus
↑ Back to top | Tablatures and chords are parodies/interpretations of the original songs. You may use it for private study, scholarship, research or language learning purposes only