» » »

If The World Tabs (ver.2)

Artists:  A B C D E F G H I J K L M N O P Q R S T U V W X Y Z # 

If The World Tabs (ver.2)

Guns N Roses
Rating:
0/5 (0 votes)

Hard to play? Try these video lessons and learn fast.
                I like this solo alot so I tabbed it out for you :)


e|-------------------13----15b17r15b17---15b17-13-15-15b17--13---------12b14|
B|----13-13-15-15v------15-------------------------------------15v-15v------|
G|/14-----------------------------------------------------------------------|
D|--------------------------------------------------------------------------|
A|--------------------------------------------------------------------------|
E|--------------------------------------------------------------------------| 

e|--------------------------------------------------------------------------|
B|-12b14-----------------------------------------13-10-----------13b15-13b15|
G|-12b14-12b14-10-12b14r12-10v----10-12b14r12b14-------12-10v-10------------|
D|-----------------------------12-------------------------------------------|
A|--------------------------------------------------------------------------|
E|--------------------------------------------------------------------------| 

e|--------------------------------------------------------------------------|
B|-13b15r13-10----------10--------------------------------------------------|
G|-------------12-10-12----10v---9-10-9-----------------10-9-9s10-10s12-12v-|
D|---------------------------------------10v----9-10-12---------------------|
A|-------------------------------------------12-----------------------------|
E|--------------------------------------------------------------------------| 

e|-15b17r15b17-13-15b17--13-------------12b14r12b14r12b14r12b14-------------|
B|-----------------------------15-15v---------------------------------------|
G|--------------------------------------------------------------------------|
D|--------------------------------------------------------------------------|
A|--------------------------------------------------------------------------|
E|--------------------------------------------------------------------------| 

e|--------------------------------------------------------------------------|
B|-----------------------13-15v---------------------------------------------|
G|-----------10-10-12s14----------------------------------------------------|
D|-----10-12----------------------------------------------------------------|
A|-/12----------------------------------------------------------------------|
E|--------------------------------------------------------------------------| 
            
Hard to play? Try these video lessons and learn fast. | Correct




comments powered by Disqus
↑ Back to top | Tablatures and chords are parodies/interpretations of the original songs. You may use it for private study, scholarship, research or language learning purposes only