» » »

Guns N Roses, Garden Of Eden Bass tabs (ver.1)

Artists:  A B C D E F G H I J K L M N O P Q R S T U V W X Y Z # 

Garden Of Eden Bass tabs (ver.1)

Guns N Roses Tabs
 Rating:
4/5 (4 votes)
Garden Of Eden lessons Tabs too difficult? Try these video lessons and learn fast
                Intro        
|------------------------------------------------------------------|
|-------------------------------------5----------------------------|
|------------------------------------------------------------------|
|-----------------3/4--------------------------------------------0-|

Verse
|-----------------------------------|
|-----------------------------------|
|-------2-----------------3h5p3-----| x4
|-0-0-0---3-3-0-0-0-0-0-0-------4-5-|

|-----------------------------|
|-------1h2---------3h4-3-1h2-|
|-3-3-3-----3-3-3-3-----------| x4
|-----------------------------|

Interlude
|-3h5-3---------------------------------------|
|-------5-5-3-1h3-1-----------3h5-3-----------|
|-------------------3-1-0-3-1-------5-1-3-0-3-|
|---------------------------------------------|

|-------------------------------------------------------------------|
|-------------------------------------------------------------------|
|---------------------------------1---------------------------------|
|-3-1-2-3-0-3-3-0-3--3-3-0-3--3-3---3--3-3-0-3--3-3-0-3-3-3-0-3-3p0-|

|-----------------|
|-5-5-555---------|
|---------3-------|
|-----------0-1-2-|

Verse 2
|-----------------------------------|
|-----------------------------------|
|-------2-----------------3h5p3-----| x4
|-0-0-0---3-3-0-0-0-0-0-0-------4-5-|

Pre-Chorus
|-----------------------------------------------------------------|
|-----------------------------------------------------------------|
|-------------3---------3---------3---------3---------3-----------|
|-8/5-5-5-5-5---5-5-5-5---5-5-5-5---5-5-5-5---5-5-5-5---5-5-5-5-5-|

|---------------|
|-7-6-5---------|
|-------3-------|
|---------0-1-2-|

Chorus
|-----------------------------|
|-------1h2---------3h4-3-1h2-|
|-3-3-3-----3-3-3-3-----------| x4
|-----------------------------|

Interlude
|-3h5-3---------------------------------------|
|-------5-5-3-1h3-1-----------3h5-3-----------|
|-------------------3-1-0-3-1-------5-1-3-0-3-|
|---------------------------------------------|

|-------------------------------------------------------------------|
|-------------------------------------------------------------------|
|---------------------------------1---------------------------------|
|-3-1-2-3-0-3-3-0-3--3-3-0-3--3-3---3--3-3-0-3--3-3-0-3-3-3-0-3-3p0-|

|-----------------|
|-5-5-555---------|
|---------3-------|
|-----------0-1-2-|

Verse 3
|-----------------------------------|
|-----------------------------------|
|-------2-----------------3h5p3-----| x4
|-0-0-0---3-3-0-0-0-0-0-0-------4-5-|

Pre-Chorus
|-----------------------------------------------------------------|
|-----------------------------------------------------------------|
|-------------3---------3---------3---------3---------3-----------|
|-8/5-5-5-5-5---5-5-5-5---5-5-5-5---5-5-5-5---5-5-5-5---5-5-5-5-5-|

|---------------|
|-7-6-5---------|
|-------3-------|
|---------0-1-2-|

Chorus
|-----------------------------|
|-------1h2---------3h4-3-1h2-|
|-3-3-3-----3-3-3-3-----------| x4
|-----------------------------|

Solo
|-------------------------------------------------------|
|-------------------------------------------------------|
|-------------3---------3---------3---------3---------3-|
|-8/5-5-5-5-5---5-5-5-5---5-5-5-5---5-5-5-5---5-5-5-5---|

|---------------------------------------------------------------------|
|---------------------------------------------------------------------|
|-----------3---------3---------3-3h5-5-5-5-3h5-5-5-5/3-3-3-3-3-3-3-3-|
|-5-5-5-5-5---5-5-5-5---5-5-5-5---------------------------------------|

|------------------------------------------|
|------------------------------------------|
|-/5-5-5-5-5-5-5-5-5-5-5-5-5-5-5-5-3-------|
|------------------------------------0-1-2-|

Verse 4
|-----------------------------|
|-------1h2---------3h4-3-1h2-|
|-3-3-3-----3-3-3-3-----------| x4
|-----------------------------|

|-3h5-3---------------------------------------|
|-------5-5-3-1h3-1-----------3h5-3-----------|
|-------------------3-1-0-3-1-------5-1-3-0-3-|
|---------------------------------------------|

|-----------------------------|
|-------1h2---------3h4-3-1h2-|
|-3-3-3-----3-3-3-3-----------| x4
|-----------------------------|

|-3h5-3---------------------------------------|
|-------5-5-3-1h3-1-----------3h5-3-----------|
|-------------------3-1-0-3-1-------5-1-3-0-3-|
|---------------------------------------------|
            
Submit corrections

comments powered by Disqus
↑ Back to top | Guns N Roses Bass for Garden Of Eden. Lyrics for acoustic guitar and electric guitar. Tablatures and chords are parodies/interpretations of the original songs. You may use it for private study, scholarship, research or language learning purposes only