>
 >
Estranged

Estranged Bass Tabs

Guns N Roses - Estranged chords, tabs, tablatures, lyrics

Guitar lessons | Add/correct | Request | Top 50 tabs Artists:  A B C D E F G H I J K L M N O P Q R S T U V W X Y Z 0-9

Estranged Bass Tabs – Guns N Roses

CD, Sheet music, Poster

Do you like Estranged? Share with your friends now
Bass TabsBass Tabs v2ChordsChords v2Chords v3Chords v4Drum TabsTabsTabs v2Ukulele
GUNS N ROSES - ESTRANGED (BASS)

standard tuning

(0:00)
G|----------------------------------------------------------------------|
D|----------------------------------------------------------------------|
A|---------2~~~~~--------2~~~~~-----------------------------------------|
E|-2~~~~~---------2~~~~~------------------------------------------------|


(0:25)
G|----------------------------------------------------------------------|
D|----------------------------------------------------------------------|
A|---------------------------2-2-0-2-2----2-2-0-2-2---------------------| X2
E|-2-2-0-2-2----2-2-0-2-2-----------------------------------------------|


(0:47)
G|------------------------------------------------------------------|
D|------------------------------------------------------------------|
A|-0----2-2-0-2-2---------------------------------------------------| X2
E|-------------------2-2-0-2-2----2-2-0-2-2-------------------------|

G|----------------------------------------------------------------------|
D|----------------------------------------------------------------------|
A|-5~~~~~4/5/7----------------------------------------------------------|
E|----------------------------------------------------------------------|


(1:12)
G|------------------------------------------------------------------|
D|------------------------------------------------------------------|
A|---4-2-5-5-5-5-7--------------------------------------------------| X2
E|-2----------------------------------------------------------------|

(1:23)
G|------------------------------------------------------------------|
D|------------------------------------------------------------------|
A|----2/4/5--4/5/7--------------------------------------------------| X2
E|-2----------------------------------------------------------------|

(1:33)
G|------------------------------------------------------------------|
D|------------------------------------------------------------------|
A|----5/4/2--2/4/5--5/4/2-0-----------------------------------------|
E|-2------------------------2---------------------------------------|

G|------------------------------------------------------------------|
D|------------------------------------------------------------------|
A|-5/4----5/4/2--2/4/5--5/4/2-0-------------------------------------|
E|-----2------------------------2-----------------------------------|

(1:54)
|--------------------------|
|--------------------------|
|--------------------------| X3
|-0-0-0-0-0-0--2-2-0-2-2-0-|

G|----------------------------------------------------------------------|
D|----------------------------------------------------------------------|
A|-2/4/5--4/5/7---------------------------------------------------------|
E|----------------------------------------------------------------------|

(2:15)
G|------------------------------------------------------------------|
D|------------------------------------------------------------------|
A|---4-2-5-5-5-5-7--------------------------------------------------| X2
E|-2----------------------------------------------------------------|

(2:25)
G|------------------------------------------------------------------|
D|------------------------------------------------------------------|
A|----2/4/5--4/5/7--------------------------------------------------| X2
E|-2----------------------------------------------------------------|

(2:36)
G|------------------------------------------------------------------|
D|------------------------------------------------------------------|
A|----5/4/2--2/4/5--5/4/2-0-----------------------------------------|
E|-2------------------------2---------------------------------------|

G|------------------------------------------------------------------|
D|------------------------------------------------------------------|
A|-5/4----5/4/2--2/4/5--5/4/2-0-------------------------------------|
E|-----2------------------------2-----------------------------------|

(2:57)
G|----------------------------------------------------------|
D|----------------------------------------------------------|
A|---------2~~~~~-------------------------------------------|
E|-2~~~~~---------------------------------------------------|

(3:07)
G|----------------------------------------------------------------------|
D|----------------------------------------------------------------------|
A|---------------------------2-2-0-2-2----2-2-0-2-2---------------------|
E|-2-2-0-2-2----2-2-0-2-2-----------------------------------------------|

(3:17)
G|------------------------------------------------------------------|
D|------------------------------------------------------------------|
A|-0----2-2-0-2-2---------------------------------------------------|
E|-------------------2-2-0-2-2----2-2-0-2-2-------------------------|

G|------------------------------------------------------------------|
D|------------------------------------------------------------------|
A|-0----2-2-0-2-2----9-9-0-9-9----9-9-0-9-9-------------------------|
E|------------------------------------------------------------------|

(3:39)
G|-------------------------------------------------------------------------------|
D|-------------------------------------------------------------------------------|
A|-2~~~--2~~~5~~~2~~~5~~5/7/5-0--2~~~5~~5/7/5-0--2~~~5~~5/7/5-0--2~~~5~~5/7/5-0--|
E|-------------------------------------------------------------------------------|

(4:13)
G|-----------------------------------|
D|-----------------------------------|
A|-0-0-0-0-0-0-0-0-0-0-0-0-0-0-0-----|
E|-----------------------------------|

(4:18)
G|----------------------------------------------|
D|----------------------------------------------|
A|--7-7-0-7-7-0--2-2-0-2-2-0--------------------|
E|----------------------------2-2-0-2-2-0-------|

(4:27)
G|----------------------------------------------|
D|----------------------------------------------|
A|--0~~~~~2~~~~~0~~~~~2~~~~~0~~~~~--------------|
E|----------------------------------------------|

(4:40)
G|------------------------------------------------------------|
D|--------2-2-2----------2-2-2----------2-2-2----------2-2-2--|
A|------------------------------------------------------------|
E|0--0-0---------0--0-0---------0--0-0---------0--0-0---------|

(4:52)
G|-------------------------------------------------|
D|-------------------------------------------------|
A|-2-2-0-2-2---------------------------------------|
E|------------2-2-0-2-2--0-0-0-0-0-0--0-0-0-0-0-0--|

(5:02)
G|----------------------------------------------|
D|----------------------------------------------|
A|-2~~~~~-------------------------------2~~~~~--|
E|---------2~~~~~--0~~~~~--0-0-0-0-0-0----------|

(5:21)
G|-----------------------------------|
D|-----------------------------------|
A|-------------7-7-0-7-7--2-2-0-2-2--| X2
E|--2-2-0-2-2------------------------| 

(5:38)
G|----------------------|
D|----------------------|
A|-----------2-2-0-2-2--|
E|--2-2-0-0-------------|

(5:42)
G|-----------------------------------|
D|-----------------------------------|
A|-------------7-7-0-7-7--2-2-0-2-2--| X2
E|--2-2-0-2-2------------------------| 

(5:58)
G|-----------|
D|-----------|
A|-----------|
E|--2-2-0-0--|

(6:01)
G|--------------------------------------------------------|
D|--------------------------------------------------------|
A|-2-2-0-2-2----------------------------------------------|
E|------------4-4-0-4-4--2-2-0-2-2--0-0-0-0-0--0-0-0-0-0--|

(6:15)
G|-----------------------------------------------------|
D|-----------------------------------------------------|
A|-2-2-0-2-2-------------7-7-0-7-7-------------2~~~~~--|
E|------------2-2-0-2-2-------------0-0-0-0-0----------|

(6:33)
G|-----------------------------------|
D|-----------------------------------|
A|-------------7-7-0-7-7--2-2-0-2-2--| X2
E|--2-2-0-2-2------------------------|

(6:50)
G|-----------|
D|-----------|
A|-----------|
E|--2-2-0-0--|

(6:52)
G|-------------------------|
D|-------------------------|
A|--11-11--9-9--7-7-7-7/9--| X3
E|-------------------------|

(7:08)
G|-------------------------------------------------------------|
D|-------------------------------------------------------------|
A|--11-11--9-9--7-7-7-7/6/4-4-4-4/2/0-0-0-0------------2~~~~~--|
E|-----------------------------------------/4/2-2-2-2----------|

(7:32)
G|---------------------------------------------------------------------|
D|---------------------------------------------------------------------|
A|--2~~~~~0~~~~~2~~~~~0~~~~~2~~~~~0~~~~~-------------------------------|
E|--------------------------------------0-0-0-0-0-0-0-0-0-0-0-0-0-0-0--|

(7:54)
G|----------------------------------------------|
D|----------------------------------------------|
A|--2-2-0-2-2-------------7-7-0-7-7--2-2-0-2-2--|
E|-------------2-2-0-2-2------------------------|

G|----------------------------------------------|
D|----------------------------------------------|
A|--2-2-0-2-2-------------7-7-0-7-7--7-7-0-7-7--|
E|-------------2-2-0-2-2------------------------|

(8:15)
G|----------|
D|----------|
A|--2~~~~~--|
E|----------|

(8:20)
G|---------|
D|---------|
A|--5/7/2--|
E|---------|

(8:23)
G|-----------------------------------|
D|-----------------------------------|
A|-------------7-7-0-7-7--2-2-0-2-2--|
E|--2-2-0-2-2------------------------|

(8:30)
G|-------------------------------------|
D|-------------------------------------|
A|-------------7-7-0-7-7--2-2-11-9-6-2-|
E|--2-2-0-2-2--------------------------|

(8:40)
G|-------------------------------|
D|--(9/8)------------------------|
A|-------/11-11--9-9--7-7-7-7/9--| X3
E|-------------------------------|

(8:57)
G|----------------------------------------------|
D|----------------------------------------------|
A|--11-11--9-9--7-7-7-7/6/4-4-4-4/2-2-11-9-6-2--|





Comments


Popular Guns N Roses tabs & chords
Ain It Fun Bass Tabs
Oh My God Bass Tabs
Back Off Bitch 1 Chords
Street Of Dreams 1 Chords
Paradise City Drum Tabs
Breakdown 1 Tabs
Chinese Democracy 2 Tabs
Madagascar Tabs
My Michelle 1 Tabs
Shotgun Blues Tabs


Song lyrics



↑ Back to top | Tablatures and chords are parodies/interpretations of the original songs. You may use it for private study, scholarship, research or language learning purposes only
© 2014 AZChords.com Contact us | Privacy policy | DMCA | Add/correct tabs | Request tabs | Top 50 tabs