>
 >
Double Talkin Live

Double Talkin Live Guitar Tabs

Guns N Roses - Double Talkin Live chords, tabs, tablatures, lyrics

Guitar lessons | Add/correct | Request | Top 50 tabs Artists:  A B C D E F G H I J K L M N O P Q R S T U V W X Y Z 0-9

Double Talkin Live Guitar Tabs – Guns N Roses

CD, Sheet music, Poster

Do you like Double Talkin Live? Share with your friends now
Tabs
-------------------------------------------------------------------------------
                    DOUBLE TALKIN' JIVE - Guns N' Roses
-------------------------------------------------------------------------------

Tuning: Eb Ab Db Gb Bb eb

Written by Izzy Stradlin.

Gtr I (Eb Ab Db Gb Bb Eb) 
Gtr II (Eb Ab Db Gb Bb Eb) 
Gtr III (Eb Ab Db Gb Bb Eb) 
Gtr IV (Eb Ab Db Gb Bb Eb)
Gtr V (Eb Ab Db Gb Bb Eb) 
Gtr VI (Eb Ab Db Gb Bb Eb) 



 
  Gtr I
                                <     <     <    <     <
  Wx4             W            +Q    +Q    +E   +Q    +E
|------------||-------------|-----------------------------|
|------------||-<12>--------|-(12)--(12)--(12)-(12)--(12)-|
|------------||-<12>--------|-(12)--(12)--(12)-(12)--(12)-|
|------------||-------------|-----------------------------|
|------------||-------------|-----------------------------|
|------------||-------------|-----------------------------|


         <     <    <    <
   +E   +Q    +E   +E   +Q    +E    E Q.   H
|---------------------------------|--------------|
|-(12)-(12)--(12)-(12)-(12)--(12)-|--------------|
|-(12)-(12)--(12)-(12)-(12)--(12)-|--------------|
|---------------------------------|--------------|
|---------------------------------|--------------|
|---------------------------------|---xS==20\----|


  E5
  Q  Q  E E E E   E E E E E E E E   Q  Q  E E E E   E E E E E E E E
|---------------|-----------------|---------------|-----------------|
|---------------|-----------------|---------------|-----------------|
|---------------|-----------------|---------------|-----------------|
|----2----2---2-|---------------2-|----2----2---2-|---------------2-|
|----2----2---2-|-------0-2p0---2-|----2----2---2-|-------0-2p0---2-|
|-0-----x---x---|-x-0-3-------3---|-0-----x---x---|-x-0-3-------3---|


  Q  Q  E E E E    E  E E E E E E E    Q   Q  E E E E    E  E E E E E E  E
|---------------|-------------------|-----------------|--------------------|
|---------------|-------------------|-----------------|--------------------|
|---------------|-------------------|-----------------|--------------------|
|----2----2---2-|-----------------2-|------2----2---2-|------------------2-|
|----2----2---2-|---------0-2p0---2-|------2----2---2-|---------0-2p0----2-|
|-0-----x---x---|--x--0-3-------3---|--0------x---x---|--x--0-3-------3----|
|
| Gtr II
| W               +W                  +W                +H.           Q
|---------------|-------------------|-----------------|--------------------|
|---------------|-------------------|-----------------|--------------------|
|---------------|-------------------|-----------------|--------------------|
|---------------|-------------------|-----------------|--------------------|
|-7-------------|-(7)---------------|-(7)-------------|-(7)-----------7\---|
|---------------|-------------------|-----------------|--------------------|


    E5
    Q  Q   E E E E    E  E E E E E E E  3x
||-----------------|--------------------||
||o----------------|-------------------o||
||-----------------|--------------------||
||-----2-----2---2-|-----------------2--||
||o----2-----2---2-|---------0-2p0---2-o||
||--0------x---x---|--x--0-3-------3----||
|
|   Q  E E E E E E   +E  E E E E E E E  3x
||-----------------|--------------------||
||o----------------|-------------------o||
||-----------------|--------------------||
||-----2-----2---2-|-(2)----------------||
||o----2-----2---2-|-(2)-------2p0-----o||
||--0----0-0---0---|-----0-2p0-----3p0--||


  E5
  Q  Q   E E E E    E  E E E E E E E
|----------------|--------------------||
|----------------|--------------------||
|----------------|--------------------||
|----2-----2---2-|-----------------2--||
|----2-----2---2-|---------0-2p0---2--||
|-0------x---x---|--x--0-3-------3----||
|
| Q  E E E E E E   +E  E E E E E E E
|----------------|--------------------||
|----------------|--------------------||
|----------------|--------------------||
|----2-----2---2-|-(2)----------------||
|----2-----2---2-|-(2)-------2p0------||
|-0----0-0---0---|-----0-2p0-----3p0--||


   Verse
    E5
    Q  E E E E E E   +E  E E E E E E E  3x
||-----------------|--------------------||
||o----------------|-------------------o||
||-----------------|--------------------||
||-----2-----2---2-|-(2)----------------||
||o----2-----2---2-|-(2)-------2p0-----o||
||--0----0-0---0---|-----0-2p0-----3p0--||


  E E E E E E E E   +E  E E E E E E E
|-----------------|--------------------||
|-----------------|--------------------||
|-----------------|--------------------||
|-----2-----2---2-|-(2)----------------||
|-----2-----2---2-|-(2)-------2p0------||
|-2p0---0-0---0---|-----0-2p0-----3p0--||


 Chorus
  C5               B5                 E5
  E E E E Q  E E   Q  E E  E  E E E   Q  Q   E E E E    E  E E E E E E E
|----------------|------------------|----------------|-------------------|
|----------------|------------------|----------------|-------------------|
|----------------|------------------|----------------|-------------------|
|-5-5-5-5----x-x-|-4--x-x--x--x-x-x-|----2-----2---2-|-----------------2-|
|-3-3-3-3----x-x-|-2--x-x--x--x-x-x-|----2-----2---2-|---------0-2p0---2-|
|----------------|------------------|-0------x---x---|--x--0-3-------3---|
|
| Gtr II
| E E E E H        Q  E E  H          Q  E E E E E E   +E  E E E E E E E
|----------------|------------------|----------------|-------------------|
|----------------|------------------|----------------|-------------------|
|----------------|------------------|----------------|-------------------|
|-5-5-5-5--------|-4----------------|----2-----2---2-|-(2)---------------|
|-3-3-3-3--------|-2----------------|----2-----2---2-|-(2)-------2p0-----|
|----------------|------xS19\-------|-0----0-0---0---|-----0-2p0-----3p0-|


  C5               B5                  E5
  E E E E Q  E E   Q  Q    E  E Q      Q  Q   E E E E    E  E E E E E E E  4x
|----------------|-----------------||-----------------|--------------------||
|----------------|-----------------||o----------------|-------------------o||
|----------------|-----------------||-----------------|--------------------||
|-5-5-5-5----x-x-|-4--x----x--4-x--||-----2-----2---2-|-----------------2--||
|-3-3-3-3----x-x-|-2--x----x--2-x--||o----2-----2---2-|---------0-2p0---2-o||
|----------------|-----------------||--0------x---x---|--x--0-3-------3----||
|
| E E E E H        Q  E E  H           Q  E E E E E E   +E  E E E E E E E  4x
|----------------|-----------------||-----------------|--------------------||
|----------------|-----------------||o----------------|-------------------o||
|----------------|-----------------||-----------------|--------------------||
|-5-5-5-5--------|-4---------------||-----2-----2---2-|-(2)----------------||
|-3-3-3-3--------|-2---------------||o----2-----2---2-|-(2)-------2p0-----o||
|----------------|------xS19\------||--0----0-0---0---|-----0-2p0-----3p0--||


   Verse
    E5
    Q  E E E E E E   +E  E E E E E E E  3x
||-----------------|--------------------||
||o----------------|-------------------o||
||-----------------|--------------------||
||-----2-----2---2-|-(2)----------------||
||o----2-----2---2-|-(2)-------2p0-----o||
||--0----0-0---0---|-----0-2p0-----3p0--||


  Q  E E E E E E   +E  E E E E E E E
|----------------|--------------------||
|----------------|--------------------||
|----------------|--------------------||
|----2-----2---2-|-(2)----------------||
|----2-----2---2-|-(2)-------2p0------||
|-0----0-0---0---|-----0-2p0-----3p0--||


 Chorus
  C5               B5                 E5
  E E E E Q  E E   Q  E E  E  E E E   Q  Q   E E E E    E  E E E E E E E
|----------------|------------------|----------------|-------------------|
|----------------|------------------|----------------|-------------------|
|----------------|------------------|----------------|-------------------|
|-5-5-5-5----x-x-|-4--x-x--x--x-x-x-|----2-----2---2-|-----------------2-|
|-3-3-3-3----x-x-|-2--x-x--x--x-x-x-|----2-----2---2-|---------0-2p0---2-|
|----------------|------------------|-0------x---x---|--x--0-3-------3---|
|
| Gtr II
| E E E E H        Q  E E  H          Q  E E E E E E   +E  E E E E E E E
|----------------|------------------|----------------|-------------------|
|----------------|------------------|----------------|-------------------|
|----------------|------------------|----------------|-------------------|
|-5-5-5-5--------|-4----------------|----2-----2---2-|-(2)---------------|
|-3-3-3-3--------|-2----------------|----2-----2---2-|-(2)-------2p0-----|
|----------------|------xS19\-------|-0----0-0---0---|-----0-2p0-----3p0-|


  C5               B5                   E5
  E E E E Q  E E   Q  E E  E  E E E     Q  Q   E E E E    E  E E E E E E E  4x
|----------------|------------------||-----------------|--------------------||
|----------------|------------------||o----------------|-------------------o||
|----------------|------------------||-----------------|--------------------||
|-5-5-5-5----x-x-|----4-4--x--x-x-x-||-----2-----2---2-|-----------------2--||
|-3-3-3-3----x-x-|----2-2--x--x-x-x-||o----2-----2---2-|---------0-2p0---2-o||
|----------------|------------------||--0------x---x---|--x--0-3-------3----||
|
| E E E E H        Q  E E  H            Q  E E E E E E   +E  E E E E E E E  4x
|----------------|------------------||-----------------|--------------------||
|----------------|------------------||o----------------|-------------------o||
|----------------|------------------||-----------------|--------------------||
|-5-5-5-5--------|-4----------------||-----2-----2---2-|-(2)----------------||
|-3-3-3-3--------|-2----------------||o----2-----2---2-|-(2)-------2p0-----o||
|----------------|------xS19\-------||--0----0-0---0---|-----0-2p0-----3p0--||


 Guitar Solo
  F5
  Gtr III
  ~~~~~~~~~~~~~~~~~~~~~~~~~
  W                   +H..               E
|-------------------|----------------------|
|-------------------|----------------------|
|-------------------|----------------------|
|-------------------|----------------------|
|-8-----------------|-(8)----------------8s|
|-------------------|----------------------|
|
| Gtr I
| E E E E +E  E E E    E   E E E +E  E E E
|-------------------|----------------------|
|-------------------|----------------------|
|-------------------|----------------------|
|-------------------|----------------------|
|-3---3-3-(3)-3-3-3-|--3-----3-3-(3)-3-3-3-|
|-0h1-1-1-(1)-1-1-1-|--0h==1-1-1-(1)-1-1-1-|
|
| Gtr II
| ~~~~~~~~~~~~~~~~~~~~~~~~~
| W                   +W
|-------------------|----------------------|
|-------------------|----------------------|
|-------------------|----------------------|
|-------------------|----------------------|
|-3-----------------|-(3)------------------|
|-1-----------------|-(1)------------------|


  F      C       F                G5   F5
   H        H           E  E  Q   E  E E E
|--------------------|---------------------|
|--------------------|---------------------|
|--------------------|---------------------|
|--------------------|---------------------|
|-10s=======8--------|-(8)-8s10---8h10p8p7-|
|--------------------|---------------------|
|
|  E E E E  E  E E E    E  E  E E Q    Q
|--------------------|---------------------|
|--------------------|---------------------|
|--------------------|---------------------|
|--------------------|---------------------|
|--3---3-3--3----3-3-|--3-----3-3s5----3---|
|--0h1-1-1--0h=1-1-1-|--0h=1--1-1s3----1---|
|
|  Q.    E +Q    Q     +H         Q    Q
|--------------------|---------------------|
|--------------------|---------------------|
|--------------------|---------------------|
|----------------3---|-(3)-----------------|
|--------3-(3)-------|------------5----3---|
|--1-----------------|------------3----1---|


  E5
                        ~~~~~~~~~~~~~~~~~~
  +Q.    E +Q.     E    W
|--------------------|-------------------|
|--------------------|-------------------|
|--------------------|-------------------|
|------------------7s|==9----------------|
|-(7)----------------|-------------------|
|--------7-(7)-------|-------------------|
|
|  Q   Q    E  E E E    E  E E E E E E E
|--------------------|-------------------|
|--------------------|-------------------|
|--------------------|-------------------|
|------2-------2---2-|-----------------2-|
|------2-------2---2-|---------0-2p0---2-|
|--0--------x----x---|--x--0-3-------3---|
|
|  Q   E E  E  E E E   +E  E E E E E E E
|--------------------|-------------------|
|--------------------|-------------------|
|--------------------|-------------------|
|------2-------2---2-|-(2)---------------|
|------2-------2---2-|-(2)-------2p0-----|
|--0-----0--0----0---|-----0-2p0-----3p0-|


 ~~~~~~~~~~~~~~~~~~~~~~~~~
                                     |---3---|
  +H..            E    H.            E  E    E
|-------------------|-----------------------------|
|-------------------|-----------------------------|
|-------------------|-----------------------------|
|-(9)-------------9s|=12------------10h12p==10p===|
|-------------------|-----------------------------|
|-------------------|-----------------------------|
|
|  Q    Q   E E E E    E  E E E E E  E    E
|-------------------|-----------------------------|
|-------------------|-----------------------------|
|-------------------|-----------------------------|
|-------2-----2---2-|---------------------2-------|
|-------2-----2---2-|---------0-2p0-------2-------|
|--0--------x---x---|--x--0-3--------3------------|
|
|  Q    E E E E E E   +E  E E E E E  E    E
|-------------------|-----------------------------|
|-------------------|-----------------------------|
|-------------------|-----------------------------|
|-------2-----2---2-|-(2)-------------------------|
|-------2-----2---2-|-(2)-------2p0---------------|
|--0------0-0---0---|-----0-2p0------3p===0-------|


  F5
     ~~~~~~~~~~~~~~~~~~~~~~~~~~~~~~~
  E  Q.      +H           +Q.     E +E   a  Q.
|----------------------|---------------------------|
|----------------------|---------------------------|
|----------------------|----------------10s12------|
|-9p10------(10)-------|-(10)-----9-(9)------------|
|----------------------|---------------------------|
|----------------------|---------------------------|
|
| E  E  E E  +E  E E E     E  E E E +E      E  E E
|----------------------|---------------------------|
|----------------------|---------------------------|
|----------------------|---------------------------|
|----------------------|---------------------------|
|-3-----3-3--(3)-3-3-3-|---3----3-3-(3)-----3--3-3-|
|-0h=1--1-1--(1)-1-1-1-|---0h=1-1-1-(1)-----1--1-1-|
|
| ~~~~~~~~~~~~~~~~~~~~~~~~~~~~
| W                       +W
|----------------------|---------------------------|
|----------------------|---------------------------|
|----------------------|---------------------------|
|----------------------|---------------------------|
|-3--------------------|--(3)----------------------|
|-1--------------------|--(1)----------------------|


  F       C        F                 G5  F5
                                          |--3--|
   +Q.     E  Q     Q      +H         Q   E  E  E
|-----------------------|----------------------------|
|-----------------------|----------------------------|
|-(12)----10p=9----10---|-(10)s======12--10h12p10p===|
|-----------------------|----------------------------|
|-----------------------|----------------------------|
|-----------------------|----------------------------|
|
|   E E E  E  E  E  E E     E  E E E  Q   Q
|-----------------------|----------------------------|
|-----------------------|----------------------------|
|-----------------------|----------------------------|
|-----------------------|----------------------------|
|---3---3--3--3-----3-3-|---3----3-3s=5---3----------|
|---0h1-1--1--0h=1--1-1-|---0h=1-1-1s=3---1----------|
|
|   Q.     E +Q     Q      +H         Q   Q
|-----------------------|----------------------------|
|-----------------------|----------------------------|
|-----------------------|----------------------------|
|-------------------3---|--(3)-----------------------|
|----------3-(3)--------|-------------5---3----------|
|---1-------------------|-------------3---1----------|


  E5
                        ~~~~~~~~~~~~~~~~~
  H       H          a  W
|-----------------|---------------------|
|-----------------|-10s12---------------|
|-9p--------------|---------------------|
|---------9-------|---------------------|
|-----------------|---------------------|
|-----------------|---------------------|
|
| Q   E E E Q   E       Q   E E E Q   E
|-----------------|---------------------|
|-----------------|---------------------|
|-----------------|---------------------|
|-----2-----2---2-|---------2-----2---2-|
|-----2-----2---2-|---------2-----2---2-|
|-0-----0-0-------|-----0-----0-0-------|
|
| Q   Q   E E E E       E E E E E E E E
|-----------------|---------------------|
|-----------------|---------------------|
|-----------------|---------------------|
|-----2-----2---2-|-------------------2-|
|-----2-----2---2-|-----------0-2p0---2-|
|-0-------x---x---|-----x-0-3-------3---|


                        N.C.
 ~~~~~~~~~~~~~~~~~~~~~~
   +H..             E    H.            S  S  S  S
|---------------------|----------------------------|
|-(12)-------------12s|=15------------13h15p13p12--|
|---------------------|----------------------------|
|---------------------|----------------------------|
|---------------------|----------------------------|
|---------------------|----------------------------|
|
|   Q    E E E Q    E    E  E E E E E  E     E
|---------------------|----------------------------|
|---------------------|----------------------------|
|---------------------|----------------------------|
|--------2-----2----2-|----------------------------|
|--------2-----2----2-|-----------2p0--------------|
|---0------0-0--------|--0--0-2p0------3p====0-----|
|
|   Q    Q   E E E  E    E  E E E E E  E     E
|---------------------|----------------------------|
|---------------------|----------------------------|
|---------------------|----------------------------|
|--------2-----2----2-|----------------------2-----|
|--------2-----2----2-|---------0-2p0--------2-----|
|---0--------x---x----|--x--0-3--------3-----------|


  F5
       ~~~~~~~~~~~~~~~~~~~~~~~~~~~~~~~~~~~~~~~~
   +S  E.    +H.                +H         +Q.      E
|----------------------------|------------------------|
|-(12)13----(13)-------------|-(13)-------(13)-----13-|
|----------------------------|------------------------|
|----------------------------|------------------------|
|----------------------------|------------------------|
|----------------------------|------------------------|
|
|   E     E   E  E +E  E E E     E  E E E  +E  E E  E
|----------------------------|------------------------|
|----------------------------|------------------------|
|----------------------------|------------------------|
|----------------------------|------------------------|
|---3---------3--3-(3)-3-3-3-|---3----3-3--(3)-3-3--3-|
|---0h====1---1--1-(1)-1-1-1-|---0h=1-1-1--(1)-1-1--1-|
|
|   ~~~~~~~~~~~~~~~~~~~~~~~~~~~~~~~~
|   W                           +W
|----------------------------|------------------------|
|----------------------------|------------------------|
|----------------------------|------------------------|
|----------------------------|------------------------|
|---3------------------------|--(3)-------------------|
|---1------------------------|--(1)-------------------|


  F      C         F                 G5       F5
   Q.     E  +E  E  E  E    H         +Q.        E
|-15-----13-(13)---13p12-|-13--------(13)b15----13-|
|------------------------|-------------------------|
|------------------------|-------------------------|
|------------------------|-------------------------|
|------------------------|-------------------------|
|------------------------|-------------------------|
|
|  E E E  E   E  E  E  E    E  E E E   Q      Q
|------------------------|-------------------------|
|------------------------|-------------------------|
|------------------------|-------------------------|
|------------------------|-------------------------|
|--3---3--3---3-----3--3-|--3----3-3s==5------3----|
|--0h1-1--1---0h=1--1--1-|--0h=1-1-1s==3------1----|
|
|  Q.     E  +Q     Q      +H          Q      Q
|------------------------|-------------------------|
|------------------------|-------------------------|
|------------------------|-------------------------|
|-------------------3----|-(3)---------------------|
|---------3--(3)---------|-------------5------3----|
|--1---------------------|-------------3------1----|


  E5
                                                  ~~~~~~~~~
                       |-3--|    |---3---|
   +E   Q.      +Q     Q    E    E  E    E  Q    +H
|-(13)-12------(12)---12h==13p|=12------------------------|
|-----------------------------|----15p==13p12---(12)------|
|-----------------------------|---------------------------|
|-----------------------------|---------------------------|
|-----------------------------|---------------------------|
|-----------------------------|---------------------------|
|
|   Q      E E   E  Q    E       Q          E E   E Q   E
|-----------------------------|---------------------------|
|-----------------------------|---------------------------|
|-----------------------------|---------------------------|
|----------2--------2----2----|-------------2-------2---2-|
|----------2--------2----2----|-------------2-------2---2-|
|---0--------0---0------------|--0------------0---0-------|
|
|   Q      Q     E  E  E E       E    E     E E   E E E E
|-----------------------------|---------------------------|
|-----------------------------|---------------------------|
|-----------------------------|---------------------------|
|----------2--------2----2----|-------------------------2-|
|----------2--------2----2----|---------------0---2p0---2-|
|---0------------x-----x------|--x----0-----3---------3---|


 ~~~~~~
                                         |--3---|
   +Q    E  S  S  H          +E.    +S   E  E   E +H
|-------------------------|----------------------------------|
|-(12)--------------------|----------------------------------|
|-------12h16p12s11-------|-(11)---(11)s12p10s==9-(9)--------|
|-------------------------|----------------------------------|
|-------------------------|----------------------------------|
|-------------------------|----------------------------------|
|
|   Q    E  E     E Q   E     E  E       E    E    E E E E
|-------------------------|----------------------------------|
|-------------------------|----------------------------------|
|-------------------------|----------------------------------|
|--------2----------2---2-|----------------------------------|
|--------2----------2---2-|------------------------2p0-------|
|---0-------0-----0-------|---0--0-------2p===0--------3p0---|
|
|   Q    Q        E E E E     E  E       E    E    E E E E
|-------------------------|----------------------------------|
|-------------------------|----------------------------------|
|-------------------------|----------------------------------|
|--------2----------2---2-|------------------------------2---|
|--------2----------2---2-|-------------------0----2p0---2---|
|---0-------------x---x---|---x--0-------3-------------3-----|


  F5
          ~~~~~~~~~~~~~~~~~~~~~~~~~~~~~~~~~~~~~~~~~~~
  +E   E  H.                +Q    a  H.
|------------------------|--------------------------|
|------------------------|--------8s10--------------|
|-(9)h12s10--------------|-(10)---------------------|
|------------------------|--------------------------|
|------------------------|--------------------------|
|------------------------|--------------------------|
|
|  E   E  E  E +E  E E E     E  E    E  E +E  E E E
|------------------------|--------------------------|
|------------------------|--------------------------|
|------------------------|--------------------------|
|------------------------|--------------------------|
|--3------3--3-(3)-3-3-3-|---3-------3--3-(3)-3-3-3-|
|--0h==1--1--1-(1)-1-1-1-|---0h=1----1--1-(1)-1-1-1-|
|
|  ~~~~~~~~~~~~~~~~~~~~~~~~~~~~~
|  W                        +W
|------------------------|--------------------------|
|------------------------|--------------------------|
|------------------------|--------------------------|
|------------------------|--------------------------|
|--3---------------------|--(3)---------------------|
|--1---------------------|--(1)---------------------|


  F            C       F                  G5   F5
 ~~~~~~~~~~~~~~~~~~~~~~~~~~~~~~~~~
   +Q    a  H.                +Q     E  E  Q.     E
|--------------------------|-----------------------------|
|-(10)--10s13--------------|-(13)---13s17-18-----18b20---|
|--------------------------|-----------------------------|
|--------------------------|-----------------------------|
|--------------------------|-----------------------------|
|--------------------------|-----------------------------|
|
|   E E     E  E  E  E E E     E  E  E  E  Q   Q
|--------------------------|-----------------------------|
|--------------------------|-----------------------------|
|--------------------------|-----------------------------|
|--------------------------|-----------------------------|
|---3-------3--3--3----3-3-|---3-----3--3s=5---3---------|
|---0h1-----1--1--0h=1-1-1-|---0h=1--1--1s=3---1---------|
|
|   Q.         E +Q    Q      +H           Q   Q
|--------------------------|-----------------------------|
|--------------------------|-----------------------------|
|--------------------------|-----------------------------|
|----------------------3---|--(3)------------------------|
|--------------3-(3)-------|---------------5---3---------|
|---1----------------------|---------------3---1---------|


  E5
   +Q    Q    H          +H         +E.   S  +E      +E
|---------------------|------------------19-(19)b20-(19)-|
|-(18)--18---17-------|-(17)-------(17)------------------|
|---------------------|----------------------------------|
|---------------------|----------------------------------|
|---------------------|----------------------------------|
|---------------------|----------------------------------|
|
|   Q    Q    E E E E     E  E E E   E E      E       E
|---------------------|----------------------------------|
|---------------------|----------------------------------|
|---------------------|----------------------------------|
|--------2------2---2-|-------------------------------2--|
|--------2------2---2-|----------0---2p0--------------2--|
|---0---------x---x---|---x--0-3--------------3----------|
|
|   Q    E E  E E E E    +E  E E E   E E      E       E
|---------------------|----------------------------------|
|---------------------|----------------------------------|
|---------------------|----------------------------------|
|--------2------2---2-|--(2)-----------------------------|
|--------2------2---2-|--(2)---------2p0-----------------|
|---0------0--0---0---|------0-2p0------------3p======0--|


   +Q.     E  +H           +Q     Q    H
|-(19)----19-(19)-------|-(19)---19---20b22-------|
|-----------------------|-------------------------|
|-----------------------|-------------------------|
|-----------------------|-------------------------|
|-----------------------|-------------------------|
|-----------------------|-------------------------|
|
|   Q   Q      E  E E E     E  E  E E  E    E E E
|-----------------------|-------------------------|
|-----------------------|-------------------------|
|-----------------------|-------------------------|
|-------2---------2---2-|-----------------------2-|
|-------2---------2---2-|-----------0--2p===0---2-|
|---0----------x----x---|---x--0--3-----------3---|
|
|   Q   E  E   E  E E E    +E  E  E E  E    E E E
|-----------------------|-------------------------|
|-----------------------|-------------------------|
|-----------------------|-------------------------|
|-------2---------2---2-|--(2)--------------------|
|-------2---------2---2-|--(2)---------2p===0-----|
|---0------0---0----0---|------0--2p0---------3p0-|


  F5
   +E  Q.      +Q     E  E    H.              E  E
|-(20)20------(20)---------|-----------------20p19-|
|--------------------18p17-|-18--------------------|
|--------------------------|-----------------------|
|--------------------------|-----------------------|
|--------------------------|-----------------------|
|--------------------------|-----------------------|
|
|   E  E  E E  +E  E  E  E    E  E E E +E  E  E  E
|--------------------------|-----------------------|
|--------------------------|-----------------------|
|--------------------------|-----------------------|
|--------------------------|-----------------------|
|---3-----3-3--(3)-3--3--3-|--3----3-3-(3)-3--3--3-|
|---0h=1--1-1--(1)-1--1--1-|--0h=1-1-1-(1)-1--1--1-|
|
|   ~~~~~~~~~~~~~~~~~~~~~~~~~~~~~
|   W                        +W
|--------------------------|-----------------------|
|--------------------------|-----------------------|
|--------------------------|-----------------------|
|--------------------------|-----------------------|
|---3----------------------|-(3)-------------------|
|---1----------------------|-(1)-------------------|


  F      C       F                 G5     F5
   H.             E  E    H         H
|-20-------------------|---------------------|
|----------------18p17-|-18--------17b18-----|
|----------------------|---------------------|
|----------------------|---------------------|
|----------------------|---------------------|
|----------------------|---------------------|
|
|  E E E E  E  E  E  E    E  E E E  Q     Q
|----------------------|---------------------|
|----------------------|---------------------|
|----------------------|---------------------|
|----------------------|---------------------|
|--3---3-3--3-----3--3-|--3----3-3s=5-----3--|
|--0h1-1-1--0h=1--1--1-|--0h=1-1-1s=3-----1--|
|
|  Q.    E +Q     Q      +H         Q     Q
|----------------------|---------------------|
|----------------------|---------------------|
|----------------------|---------------------|
|-----------------3----|-(3)-----------------|
|--------3-(3)---------|------------5-----3--|
|--1-------------------|------------3-----1--|


  E5
   H.           E  E    W
|--------------19p18-|-17----------------|
|-17-----------------|-------------------|
|--------------------|-------------------|
|--------------------|-------------------|
|--------------------|-------------------|
|--------------------|-------------------|
|
|  Q   Q   E E  E  E    E  E E E E E E E
|--------------------|-------------------|
|--------------------|-------------------|
|--------------------|-------------------|
|------2-----2-----2-|-----------------2-|
|------2-----2-----2-|---------0-2p0---2-|
|--0-------x----x----|--x--0-3-------3---|
|
|  Q   E E E E  E  E   +E  E E E E E E E
|--------------------|-------------------|
|--------------------|-------------------|
|--------------------|-------------------|
|------2-----2-----2-|-(2)---------------|
|------2-----2-----2-|-(2)-------2p0-----|
|--0-----0-0----0----|-----0-2p0-----3p0-|


  |---3---|    |----3----|                          |----3----|
  Q  Q    q    q    q    Q      S   S  S  S  +E  E  q    q    Q
|--------19--------19--------|--------------------------------------|
|---18--------18--------18---|-----18p14----------------------------|
|----------------------------|-----------14-(14)16-14---------------|
|----------------------------|--------------------------17---15-----|
|----------------------------|--------------------------------------|
|----------------------------|--------------------------------------|
|
| Q    Q       E E    E    E    E      E      E  E  E E    E    E
|----------------------------|--------------------------------------|
|----------------------------|--------------------------------------|
|----------------------------|--------------------------------------|
|------2---------2---------2-|----------------------------------2---|
|------2---------2---------2-|-------------------0--2p0---------2---|
|-0------------x------x------|--x------0------3------------3--------|
|
| Q    E    E  E E    E    E   +E      E      E  E  E E    E    E
|----------------------------|--------------------------------------|
|----------------------------|--------------------------------------|
|----------------------------|--------------------------------------|
|------2---------2---------2-|-(2)----------------------------------|
|------2---------2---------2-|-(2)------------------2p0-------------|
|-0---------0--0------0------|---------0------2p=0---------3p===0---|


  F5
   |-3--|
   Q    H          +H           +E   E  H.
|----------------------------|-------------------------|
|----------------------------|-------------------------|
|----------------------------|-------------------------|
|-17---15b17======(15)r======|=(15)-15-15--------------|
|----------------------------|-------------------------|
|----------------------------|-------------------------|
|
|  E E        E E  +E  E E E     E   E  E  E +E  E E E
|----------------------------|-------------------------|
|----------------------------|-------------------------|
|----------------------------|-------------------------|
|----------------------------|-------------------------|
|--3----------3-3--(3)-3-3-3-|---3------3--3-(3)-3-3-3-|
|--0h1--------1-1--(1)-1-1-1-|---0h==1--1--1-(1)-1-1-1-|
|
|  ~~~~~~~~~~~~~~~~~~~~~~~~~~~~~~~~~
|  W                            +W
|----------------------------|-------------------------|
|----------------------------|-------------------------|
|----------------------------|-------------------------|
|----------------------------|-------------------------|
|--3-------------------------|--(3)--------------------|
|--1-------------------------|--(1)--------------------|


  F            C       F                 G5  F5
   |----3----|
   Q    Q    q    q    q      q     E  E  q   q
|--------------------------|----------------------|
|--------------------------|----------------------|
|--------------------------|----------------------|
|-17p==15---17---15----0---|--0----17-15-14--14---|
|--------------------------|----------------------|
|--------------------------|----------------------|
|
|  E E    E    E  E  E E E    E  E  E  E  Q   Q
|--------------------------|----------------------|
|--------------------------|----------------------|
|--------------------------|----------------------|
|--------------------------|----------------------|
|--3------3----3--3----3-3-|--3-----3--3s=5---3---|
|--0h1----1----1--0h=1-1-1-|--0h=1--1--1s=3---1---|
|
|  Q.          E +Q    Q     +H           Q   Q
|--------------------------|----------------------|
|--------------------------|----------------------|
|--------------------------|----------------------|
|----------------------3---|-(3)------------------|
|--------------3-(3)-------|--------------5---3---|
|--1-----------------------|--------------3---1---|


  E5
              ~~~~               ~~~~~~~~~~~
                          |--3---|
   Q   E  E  +H           E  E   E +Q   +Q.    E
|----------------------|-------------------------|
|----------------------|-------------------------|
|----------------------|-------------------------|
|-14--14-14-(14)-------|--9--9---9-(9)--(9)----6-|
|----------------------|-------------------------|
|----------------------|-------------------------|
|
|  Q   Q      E  E E E    E    E    E E  E E E E
|----------------------|-------------------------|
|----------------------|-------------------------|
|----------------------|-------------------------|
|------2---------2---2-|-----------------------2-|
|------2---------2---2-|--------------0--2p0---2-|
|--0----------x----x---|--x----0----3--------3---|
|
|  Q   E  E   E  E E E   +E    E    E E  E E E E
|----------------------|-------------------------|
|----------------------|-------------------------|
|----------------------|-------------------------|
|------2---------2---2-|-(2)---------------------|
|------2---------2---2-|-(2)-------------2p0-----|
|--0------0---0----0---|-------0----2p0------3p0-|


      ~~~~~~~~              ~~
  E E Q   +Q.     E    E  E H       E E
|-------------------|---------------------|
|-------------------|---------------------|
|-------------------|---------------------|
|-6-6-6---(6)-----2-|--2p=0-2-------2h3---|
|-------------------|---------------------|
|-------------------|---------------------|
|
| Q   Q    E  E E E    E  E E E E E E E
|-------------------|---------------------|
|-------------------|---------------------|
|-------------------|---------------------|
|-----2-------2---2-|-----------------2---|
|-----2-------2---2-|---------0-2p0---2---|
|-0--------x----x---|--x--0-3-------3-----|
|
| Q   E E  E  E E E   +E  E E E E E E E
|-------------------|---------------------|
|-------------------|---------------------|
|-------------------|---------------------|
|-----2-------2---2-|-(2)-----------------|
|-----2-------2---2-|-(2)-------2p0-------|
|-0-----0--0----0---|-----0-2p0-----3p0---|


  F5                                            F        C          F
  ~~~                                  ~~~~~~~~~~~~~~
                                                            |----3----|
  H..               E    E  E E E  E   Q.        +E E  q    q     q   q
|---------------------|-----------------------|----------------------------|
|---------------------|-----------------------|----------------------------|
|---------------------|-----2-4-5--5s=10------|-(10)9-10----9----10---9----|
|-3-----------------3h|==5--------------------|----------------------------|
|---------------------|-----------------------|----------------------------|
|---------------------|-----------------------|----------------------------|
|
| E   E E E +E  E E E    E  E E E +E   E  E E     E E  E E  E  E    E   E
|---------------------|-----------------------|----------------------------|
|---------------------|-----------------------|----------------------------|
|---------------------|-----------------------|----------------------------|
|---------------------|-----------------------|----------------------------|
|-3-----3-3-(3)-3-3-3-|--3----3-3-(3)--3--3-3-|---3----3-3--3-------3---3--|
|-0h==1-1-1-(1)-1-1-1-|--0h=1-1-1-(1)--1--1-1-|---0h1--1-1--0h=1----1---1--|
|
| ~~~~~~~~~~~~~~~~~~~~~~~~~~
| W                     +W                        Q.     E +Q       Q
|---------------------|-----------------------|----------------------------|
|---------------------|-----------------------|----------------------------|
|---------------------|-----------------------|----------------------------|
|---------------------|-----------------------|---------------------3------|
|-3-------------------|-(3)-------------------|----------3-(3)-------------|
|-1-------------------|-(1)-------------------|---1------------------------|


             G5     F5        E5
                                 ~~~~~~~~~~~~~~~~~~~
              |-3-|  |-3--|
   E  E  E E  E E E  E E  E   Q  H.             +W
|---------------------------|-----------------|--------------------|
|---------------------------|----9------------|-(9)----------------|
|-10--9-10-9-10p9p7----7----|-----------------|--------------------|
|-------------------10---10-|-9---------------|--------------------|
|---------------------------|-----------------|--------------------|
|---------------------------|-----------------|--------------------|
|
|  E  E  E E  Q      Q        Q  Q    E E E E    E  E E E E E E E
|---------------------------|-----------------|--------------------|
|---------------------------|-----------------|--------------------|
|---------------------------|-----------------|--------------------|
|---------------------------|----2------2---2-|-----------------2--|
|--3-----3-3s=5------3------|----2------2---2-|---------0-2p0---2--|
|--0h=1--1-1s=3------1------|-0-------x---x---|--x--0-3-------3----|
|
|  H          Q      Q        Q  E  E E E E E   +E  E E E E E E E
|---------------------------|-----------------|--------------------|
|---------------------------|-----------------|--------------------|
|---------------------------|-----------------|--------------------|
|-(3)-----------------------|----2------2---2-|-(2)----------------|
|-------------5------3------|----2------2---2-|-(2)-------2p0------|
|-------------3------1------|-0-----0-0---0---|-----0-2p0-----3p0--|


  E5                         E5
  Gtrs I, II
   Q     Q      E  E    E    E   +W
   |     |      |  |    |    |    |
   o     o      x  o    x    /    /

                |----3-----|
   Q     Q      Q     Q    Q      Q   Q    Q     E  E
|------------------------------|----------------------|
|--------9-----10----10s==12---|-10---9---10----10s12-|
|-10---------------------------|----------------------|
|------------------------------|----------------------|
|------------------------------|----------------------|
|------------------------------|----------------------|
|
| Gtr IV
|  |---3---|    |----3-----|
|  Q   Q   Q    Q     Q    Q      Q   Q    H
|------------------------------|----------------------|
|---------------------0--------|----------------------|
|----------1----2----------2---|--0-------------------|
|--2---3-----------------------|------3----2----------|
|------------------------------|----------------------|
|------------------------------|----------------------|
|
| Gtr VI
|  E E   E   E +E  E    E    E    E E E E +E  E  E  E
|------------0-(0)-------------|--------0-(0)---------|
|--------0---------0---------0-|------0-------0-----0-|
|----1------------------1------|----1------------1----|
|--2---------------------------|--2-------------------|
|------------------------------|----------------------|
|------------------------------|----------------------|


  F5
    W                      +W
    |                       |
    /                       /

               ~~~~~~~~~~~~~~~~
   +Q     Q    H           +Q     E  E  Q.      E
|-----------------------|-------------------------|
|-(12)---10---10--------|-(10)---13-12-12------13-|
|-----------------------|-------------------------|
|-----------------------|-------------------------|
|-----------------------|-------------------------|
|-----------------------|-------------------------|
|
|   E Q.       Q    E E    +E  Q     E +E  Q    E
|-----------------------|-------------------------|
|-----------------------|-------------------------|
|---------------------4-|--(4)-5-----7-(7)-5----4-|
|--------------7----6---|-------------------------|
|---7h8-----------------|-------------------------|
|-----------------------|-------------------------|
|
|   E E   E E +E  E E E     E  E  E  E +E  E E  E
|-----------1-(1)-------|------------1-(1)--------|
|---------1-------1---1-|---------1--------1----1-|
|-----2-------------2---|------2-------------2----|
|---3-------------------|---3---------------------|
|-----------------------|-------------------------|
|-----------------------|-------------------------|


  F       C        F                   G5           F5
   Q.     E +Q     Q       +H           Q            Q
   |      |  |     |        |           |            |
   o      o  /     o        /           /            /

   ~~~                      ~~~~
   H         E   Q    E    +H           E     +Q        E
|-----------------------|------------------------------------|
|-13--------13s=15---15-|-(15)---------15b17-(15)------15b17-|
|-----------------------|------------------------------------|
|-----------------------|------------------------------------|
|-----------------------|------------------------------------|
|-----------------------|------------------------------------|
|
|  Q    Q    Q     E  E     E  +Q.      E     +E  a  E  E
|-----------------------|---8--(8)------7-----(7)-7s10--8----|
|-------8----6-----5--6-|------------------------------------|
|--5--------------------|------------------------------------|
|-----------------------|------------------------------------|
|-----------------------|------------------------------------|
|-----------------------|------------------------------------|
|
|  E  E E E +E   E E  E     E   E  E E  Q            Q
|---------1-(1)---------|------------1--3------------1-------|
|-------1--------1----1-|----------1----3------------1-------|
|-----2------------2----|-------2-------4------------2-------|
|--3--------------------|---3-----------5------------3-------|
|-----------------------|------------------------------------|
|-----------------------|------------------------------------|


  E5
    W                        +W
    |                         |
    /                         /

   +W                        +W
|-------------------------|--------------------------||
|-(15)--------------------|-(15)---------------------||
|-------------------------|--------------------------||
|-------------------------|--------------------------||
|-------------------------|--------------------------||
|-------------------------|--------------------------||
|
|   Q    E E +E  S S  E E     E  Q.     +Q    E  E
|---7----8-7-(7)h8p7----7-|--------------------------||
|--------------------10---|--10--9------(9)---9s12---||
|-------------------------|--------------------------||
|-------------------------|--------------------------||
|-------------------------|--------------------------||
|-------------------------|--------------------------||
|
|   E  E E E +E  E    E E     E  E  E E +E  E E  E
|----------0-(0)----------|-----------0-(0)----------||
|--------0-------0------0-|---------0-------0----0---||
|------1--------------1---|------1------------1------||
|---2---------------------|---2----------------------||
|-------------------------|--------------------------||
|-------------------------|--------------------------||


 Outro
  E
  Gtr V
    Q    E E  +E  Q       E   Q   E E +E  Q   E
    |    | |   |  |       |   |   | |  |  |   |
    /    / /   /  /       /   /   / /  /  /   /

  Gtr IV
               |---3----|
   +H         +Q    Q   Q     W
|---------------------------|-------------------|
|-(12)-------(12)-----------|-------------------|
|-------------------9---9---|-9-----------------|
|---------------------------|-------------------|
|---------------------------|-------------------|
|---------------------------|-------------------|
|
| Gtr VI
|   E  E E E  +E  E   E   E   E E E E +E  E E E
|----------0--(0)-----------|-------0-(0)-------|
|--------0--------0-------0-|-----0-------0---0-|
|------1--------------1-----|---1-----------1---|
|---2-----------------------|-2-----------------|
|---------------------------|-------------------|
|---------------------------|-------------------|


  F
  Q    E  E +E   Q    E    Q     E  E  +E  Q     E
  |    |  |  |   |    |    |     |  |   |  |     |
  /    /  /  /   /    /    /     /  /   /  /     /

  Q    E  E  E   Q    E    E  E  E  E  +Q     E  E
|-----13-13-13p=12---12-|-12p10-10-10-(10)-----------|
|-----------------------|--------------------13-13---|
|-----------------------|----------------------------|
|-----------------------|----------------------------|
|-----------------------|----------------------------|
|-----------------------|----------------------------|
|
| E E  E  E +E   E E  E    E  E  E  E  +E  E  E  E
|---------1-(1)---------|-----------1--(1)-----------|
|------1---------1----1-|--------1---------1-----1---|
|---2--------------2----|-----2---------------2------|
|-3---------------------|--3-------------------------|
|-----------------------|----------------------------|
|-----------------------|----------------------------|


  F                                    G       F
    Q    E E +E  Q     E    Q     Q      Q      Q
    |    | |  |  |     |    |     |      |      |
    /    / /  /  /     /    /     /      /      /

   +H.              E  E    E  E  E  E  +E   E  E  E
|------------------13-13-|-13p12-12-12-(12)----------|
|-(13)-------------------|------------------15-15-15p|
|------------------------|---------------------------|
|------------------------|---------------------------|
|------------------------|---------------------------|
|------------------------|---------------------------|
|
|   E  E E E +E  E  E  E    E  E  E  E   Q      Q
|----------1-(1)---------|-----------1---3------1----|
|--------1-------1-----1-|--------1------3------1----|
|------2------------2----|-----2---------4------2----|
|---3--------------------|--3------------5------3----|
|------------------------|---------------------------|
|------------------------|---------------------------|


  E
   Q     E  E +E  Q   E     Q    E E +E  Q      E
   |     |  |  |  |   |     |    | |  |  |      |
   /     /  /  /  /   /     /    / /  /  /      /

                                            |--3--|
   E  E  H.                +H.              E E   E
|-----------------------|-----------------------------|
|-13-13p12--------------|-(12)------------------------|
|-----------------------|------------------10p9p==7---|
|-----------------------|-----------------------------|
|-----------------------|-----------------------------|
|-----------------------|-----------------------------|
|
|  E  E  E  E +E  E E E     E  E E E +E  E  E   E
|-----------0-(0)-------|----------0-(0)--------------|
|--------0--------0---0-|--------0-------0------0-----|
|-----1-------------1---|------1------------1---------|
|--2--------------------|---2-------------------------|
|-----------------------|-----------------------------|
|-----------------------|-----------------------------|


  E
  Q   E E +E  Q   E   Q   E E +E  Q   E
  |   | |  |  |   |   |   | |  |  |   |
  /   / /  /  /   /   /   / /  /  /   /

  W                   W
|-------------------|-------------------|
|-------------------|-------------------|
|-9-----------------|-------------------|
|-------------------|-------------------|
|-------------------|-------------------|
|-------------------|-------------------|
|
| E E E E +E  E E E   E E E E +E  E E E
|-------0-(0)-------|-------0-(0)-------|
|-----0-------0---0-|-----0-------0---0-|
|---1-----------1---|---1-----------1---|
|-2-----------------|-2-----------------|
|-------------------|-------------------|
|-------------------|-------------------|


  F
  Q     E    E +E  Q        E   Q    E E +E   Q     E
  |     |    |  |  |        |   |    | |  |   |     |
  /     /    /  /  /        /   /    / /  /   /     /

  |---3----|    |----3----|
  Q   Q    Q    Q     Q   Q     Q    Q    E   S S Q
|-------------------------8---|-7s==10----8h=10p8p7----|
|---------------9----10-------|------------------------|
|-----9---10------------------|------------------------|
|-----------------------------|------------------------|
|-----------------------------|------------------------|
|-----------------------------|------------------------|
|
| E E   E    E +E  E    E   E   E E  E E +E   E   E E
|------------1-(1)------------|--------1-(1)-----------|
|-------1----------1--------1-|------1--------1-----1--|
|---2-------------------2-----|---2---------------2----|
|-3---------------------------|-3----------------------|
|-----------------------------|------------------------|
|-----------------------------|------------------------|


  F                                   G     F
  Q     E      E  +E  Q   E   Q   Q    Q    Q
  |     |      |   |  |   |   |   |    |    |
  /     /      /   /  /   /   /   /    /    /

  |----3-----|
  Q   Q   a  Q    +E  E E E   Q   E E +E  E Q
|-8---7---8-10---(10)-----8-|-7---8-7-(7)-8-7--|
|---------------------------|------------------|
|---------------------------|------------------|
|---------------------------|------------------|
|---------------------------|------------------|
|---------------------------|------------------|
|
| E E   E      E  +E  E E E   E E E E  Q    Q
|--------------1--(1)-------|-------1--3----1--|
|-------1-------------1---1-|-----1----3----1--|
|---2-------------------2---|---2------4----2--|
|-3-------------------------|-3--------5----3--|
|---------------------------|------------------|
|---------------------------|------------------|


  E
  Q   E E +E  Q   E   Q   E E +E  Q       E
  |   | |  |  |   |   |   | |  |  |       |
  /   / /  /  /   /   /   / /  /  /       /

                                     |---3---|
  Q   Q    H          H        Q     E  E    E
|-----7----7--------|---------------13p12p==10--|
|-------------------|---------------------------|
|-------------------|---------------------------|
|-------------------|---------------------------|
|-------------------|---------------------------|
|-------------------|---------------------------|
|
| E E E E +E  E E E   E E E E +E  E  E    E
|-------0-(0)-------|-------0-(0)---------------|
|-----0-------0---0-|-----0-------0-------0-----|
|---1-----------1---|---1------------1----------|
|-2-----------------|-2-------------------------|
|-------------------|---------------------------|
|-------------------|---------------------------|


  E
   Q   E E +E  Q   E   Q   E E +E  Q    E
   |   | |  |  |   |   |   | |  |  |    |
   /   / /  /  /   /   /   / /  /  /    /

   W                   H        Q     Q
|-12-----------------|---------------12---|
|--------------------|--------------------|
|--------------------|--------------------|
|--------------------|--------------------|
|--------------------|--------------------|
|--------------------|--------------------|
|
|  E E E E +E  E E E   E E E E +E  E  E E
|--------0-(0)-------|-------0-(0)--------|
|------0-------0---0-|-----0-------0----0-|
|----1-----------1---|---1------------1---|
|--2-----------------|-2------------------|
|--------------------|--------------------|
|--------------------|--------------------|


  F
   Q   E E +E  Q     E    Q   E E +E  Q     E
   |   | |  |  |     |    |   | |  |  |     |
   /   / /  /  /     /    /   / /  /  /     /

   H        Q     E  E    H        Q     E  E
|-15-------13----13p12-|-13-------------------|
|----------------------|----------------13-13-|
|----------------------|----------------------|
|----------------------|----------------------|
|----------------------|----------------------|
|----------------------|----------------------|
|
|  E E E E +E  E  E  E    E E E E +E  E  E  E
|--------1-(1)---------|--------1-(1)---------|
|------1-------1-----1-|------1-------1-----1-|
|----2------------2----|----2------------2----|
|--3-------------------|--3-------------------|
|----------------------|----------------------|
|----------------------|----------------------|


  F                               G       F
   Q   E E +E  Q    E   Q    Q      Q      Q
   |   | |  |  |    |   |    |      |      |
   /   / /  /  /    /   /    /      /      /

   H        Q     E E   E  Q    E  +E   E  Q
|----------------15---|---12---13-(13)-12-13--|
|-13------------------|-----------------------|
|---------------------|-----------------------|
|---------------------|-----------------------|
|---------------------|-----------------------|
|---------------------|-----------------------|
|
|  E E E E +E  E  E E   E  E E  E   Q      Q
|--------1-(1)--------|---------1---3------1--|
|------1-------1----1-|------1------3------1--|
|----2------------2---|----2--------4------2--|
|--3------------------|-3-----------5------3--|
|---------------------|-----------------------|
|---------------------|-----------------------|


  E
   Q   E  E +E   Q    E   Q   E E +E  Q      E
   |   |  |  |   |    |   |   | |  |  |      |
   /   /  /  /   /    /   /   / /  /  /      /

                                        |---3---|
   E E E  E  E   Q.       H        Q    E  E    E
|-12-----12-------------|---------------------------|
|-----------13--12------|---------------------------|
|-----------------------|-----------------13---13---|
|-----------------------|---------------------------|
|-----------------------|---------------------------|
|-----------------------|---------------------------|
|
|  E E E  E +E   E  E E   E E E E +E  E E    E
|---------0-(0)---------|-------0-(0)---------------|
|------0---------0----0-|-----0-------0------0------|
|----1--------------1---|---1-----------1-----------|
|--2--------------------|-2-------------------------|
|-----------------------|---------------------------|
|-----------------------|---------------------------|


  E
    Q        E E +E  Q     E
    |        | |  |  |     |
    /        / /  /  /     /

   +S   E.   Q    Q     E  E
|----------------------------|
|----------------------13-13-|
|-(13)-13--------------------|
|----------------------------|
|----------------------------|
|----------------------------|
|
|   E      E E E +E  E  E  E
|--------------0-(0)---------|
|------------0-------0-----0-|
|----------1------------1----|
|---2------------------------|
|----------------------------|
|----------------------------|


                         F
   Q   E E +E  Q     E    Q     E E +E  Q         E
   |   | |  |  |     |    |     | |  |  |         |
   /   / /  /  /     /    /     / /  /  /         /

                                     |----3-----|
   H        Q     E  E    E  E  Q    Q     Q    Q
|----------------------|----10-12---10----12---13---|
|-12-------------10-12-|-13-------------------------|
|----------------------|----------------------------|
|----------------------|----------------------------|
|----------------------|----------------------------|
|----------------------|----------------------------|
|
|  E E E E +E  E  E  E    E  E  E E +E  E    E    E
|--------0-(0)---------|----------1-(1)-------------|
|------0-------0-----0-|--------1-------1---------1-|
|----1------------1----|-----2---------------2------|
|--2-------------------|--3-------------------------|
|----------------------|----------------------------|
|----------------------|----------------------------|


  F
   Q     E  E +E   Q     E
   |     |  |  |   |     |
   /     /  /  /   /     /

   E  E  E  E  E   E  E  E
|-12-10-12-13-12--10-12-10-|
|--------------------------|
|--------------------------|
|--------------------------|
|--------------------------|
|--------------------------|
|
|  E  E  E  E +E   E  E  E
|-----------1-(1)----------|
|--------1---------1-----1-|
|-----2---------------2----|
|--3-----------------------|
|--------------------------|
|--------------------------|


                                                  G    F
    Q        E  E +E  Q        E    Q      Q      Q    Q
    |        |  |  |  |        |    |      |      |    |
    /        /  /  /  /        /    /      /      /    /

                   |----3----|      |----3----|
   +E    E   E  E  Q     Q   Q      Q    Q    Q   E  E E E
|-(10)------10-------------------|-------------------------|
|------(13)----13-12----10---9---|-10---12---10---9-10-9---|
|--------------------------------|-----------------------9-|
|--------------------------------|-------------------------|
|--------------------------------|-------------------------|
|--------------------------------|-------------------------|
|
|   E    E   E  E +E  E    E   E    E E    E    E Q    Q
|---------------1-(1)------------|--------------1-3----1---|
|------------1--------1--------1-|---------1------3----1---|
|--------2-----------------2-----|----2-----------4----2---|
|---3----------------------------|--3-------------5----3---|
|--------------------------------|-------------------------|
|--------------------------------|-------------------------|


  E
  Q    E E +E  Q    E   Q    E  E +E   Q   E    Q    E E +E  Q   E
  |    | |  |  |    |   |    |  |  |   |   |    |    | |  |  |   |
  /    / /  /  /    /   /    /  /  /   /   /    /    / /  /  /   /

  E  E Q    E  E  E E   E  E E  E  E   E E E    E Q.     +H
|---------------------|----------------------|---------------------*|
|-9-------------------|------------8---------|---------------------*|
|---10-9------------7-|-9-10-9-10-----10-9-7-|-10-9------(9)-------*|
|--------------9-10---|----------------------|---------------------*|
|---------------------|----------------------|---------------------*|
|---------------------|----------------------|---------------------*|
|
| E  E E E +E  E  E E   E  E E  E +E   E E E    E E  E E +E  E E E
|--------0-(0)--------|---------0-(0)--------|---------0-(0)-------*|
|------0-------0----0-|------0---------0---0-|-------0-------0---0-*|
|----1------------1---|----1-------------1---|----1------------1---*|
|-2-------------------|-2--------------------|--2------------------*|
|---------------------|----------------------|---------------------*|
|---------------------|----------------------|---------------------*|





Comments


Popular Guns N Roses tabs & chords
14 Years 1 Bass Tabs
New Rose Bass Tabs
You're Crazy 1 Bass Tabs
Civil War Chords
Its So Easy Chords
Anything Goes 1 Tabs
Back Of Bitch Tabs
I Don't Care About You Tabs
Its So Easy 1 Tabs
Knockin On Heavens Door 5 Tabs


Song lyrics



↑ Back to top | Tablatures and chords are parodies/interpretations of the original songs. You may use it for private study, scholarship, research or language learning purposes only
© 2014 AZChords.com Contact us | Privacy policy | DMCA | Add/correct tabs | Request tabs | Top 50 tabs