» » »

Guns N Roses, Double Talkin Jive Tabs (ver.4)

Artists:  A B C D E F G H I J K L M N O P Q R S T U V W X Y Z # 

Double Talkin Jive Tabs (ver.4)

Guns N Roses Tabs
Rating:
0/5 (0 votes)
Double Talkin Jive lessons Tabs too difficult? Try these video lessons and learn fast
                (Live)
Guns N' Roses
Double Talkin' Jive
Tuning- Half Step Down
 (Tokyo Riff)
                                              
|-----------------|      
|-----------------|      
|-----------------|      
|-----------------|2x      
|-----------------|      
|-0-0-0-0-0-0-0-0-|                
*Palm Mute
|----------------------------------------------|
|----------------------------------------------|
|----------------------------------------------|
|---0h2-0h2-----------------0h2-0h2-0h2-0h3~~~~|4x
|---0h2-0h2-----------------0h2-0h2-0h2-0h3~~~~|
|-----------0-0-0-0-0-0-0-0--------------------|
*Palm Mute E String 

|-------------------------------------------------|
|-------------------------------------------------|
|-------------------------------------------------|
|-------2-------2--2-------------------------2----|
|-------2-------2--2-----------0--2--0-------2----|
|---0pm-----0pm--------0pm-3pm------------3-------|

|------------------------------------------------|
|------------------------------------------------|
|------------------------------------------------|
|---2--2------2--2-------------------------------|
|---2--2------2--2----------------2p--0----------|
|---0--0---0----------0---3p--0----------3p--0---|
          


Solo:
|----------------------------------------------------------------------------|
|----------------------------------------------------------------------------|
|-----------------------------------4~----/7-5h7p5--\4h5~--------------------|
|--2/3~---3hb-3~---3hb-3-2h3p2-----------------------------------------------|
|-------------------------------2--------------------------------------------|
|----------------------------------------------------------------------------|

|----------------------------------------------------------------------------|
|---8--6-5-6--/-8-6h8p6-\-5h6----/-12--/-15~~~--13h15p13--\--12h13-----------|
|-5---------------------------4----------------------------------------------|
|----------------------------------------------------------------------------|
|----------------------------------------------------------------------------|
|----------------------------------------------------------------------------|

|----15--13-13-12h13hb--13-12~---12h13p12\10---------------------------------|
|-13------------------------------------------12-----------------------------|
|----------------------------------------------------------------------------|
|----------------------------------------------------------------------------|
|----------------------------------------------------------------------------|
|----------------------------------------------------------------------------|

|-------------------------------------------------------------19------19~----|
|--8h12p8----------------------------------------18hb--18-17-----------------|
|----------11p10-----9h10p9---12\10---/14~---/17-----------------------------|
|----------------------------------------------------------------------------|
|----------------------------------------------------------------------------|
|----------------------------------------------------------------------------|

|-20hb--20~-------------20-19h20-----------------------19-18-19--------------|
|------------18-17-18------------18-17-18-17hb---17~-------------------------|
|----------------------------------------------------------------------------|
|----------------------------------------------------------------------------|
|----------------------------------------------------------------------------|
|----------------------------------------------------------------------------|

|----19----19--------x-------------------------------------------------------|
|-17----17----17------x------------------------------------------------------|
|----------------------x-9-12-10hb--10-(10)-(10)~--12--10--12--10------------|
|----------------------------------------------------------------------------|
|----------------------------------------------------------------------------|
|----------------------------------------------------------------------------|

|----------------------------------------------------------------------------|
|----------------------------------------------------------------------------|
|-x-x-10 9-(9)-(9)~----4-(4)-(4)-(4)~----------------------------------------|
|----------------------------------------6-(6)-(6)~---2-(2)-(2)~----2-/-3----|
|----------------------------------------------------------------------------|
|----------------------------------------------------------------------------|

|--------------------------------------------7~~~~---------------------------|
|----------------3-/-6~----5-6-5-6-5-6---------------------------------------|
|-------2--3--5------------------------6--4----------------------------------|
|-3--5-----------------------------------------------------------------------|
|----------------------------------------------------------------------------|
|----------------------------------------------------------------------------|

Acoustic riff:
|-----------1--------------------1---------------------1--------------------1-|
|--------1-----1-----1--------1-----1-----1---------1-----1-----1--------1----|
|-----2-----------2--------2-----------2---------2-----------2--------2-------|
|--3--------------------3---------------------3--------------------3----------|
|-----------------------------------------------------------------------------|
|-----------------------------------------------------------------------------|

|--3--1-----------0---------------------0--------------------0----------------|
|--3--1--------0-----0-----0---------0-----0-----0--------0-----0-----0-------|
|--4--2-----1-----------1---------1-----------1--------1-----------1----------|
|--5--3--2---------------------2--------------------2--------------------2----|
|-----------------------------------------------------------------------------|
|-----------------------------------------------------------------------------|

|--------0------------|
|-----0-----0-----0---|
|--1-----------1------|
|---------------------|
|---------------------|
|---------------------|

qb    - quarter step bend 
hb    - half step bend 
fb    - full step bend 
~     - vibrato 
h     - Hammer on 
p     - Pull off 
/ \   - Slide up and down 
(x)   - Strike note while last one still ringing 
  
            
Submit corrections

comments powered by Disqus
↑ Back to top | Guns N Roses Tabs for Double Talkin Jive. Lyrics for acoustic guitar and electric guitar. Tablatures and chords are parodies/interpretations of the original songs. You may use it for private study, scholarship, research or language learning purposes only