» » »

Guns N Roses, Don T Cry Tabs (ver.3)

Artists:  A B C D E F G H I J K L M N O P Q R S T U V W X Y Z # 

Don T Cry Tabs (ver.3)

Guns N Roses Tabs
 Rating:
4/5 (4 votes)
Don T Cry lessons Tabs too difficult? Try these video lessons and learn fast
                (Solo)
TAB WRITIN BY :RANDY STUART                2/14/03
                                                              
SONG TITLE : DON'T CRY
ARTIST OF SONG : GUNS'N'ROSES

OK GUITARIST OUT THERE THAT ARE GUNS'N'ROSES FANS THIS SOLO IS COOL NOT WIERD 
AND ITS A FUN SPIN CHILLIN SOLO I HAVE THIS SOLO DOWN AND IT SOUND CORRECT SO 
BARE WITH ME AND LETS DO WHAT WE GOT TO DO TO SOUND LIKE THE PROS, OF COURSE SLASH!

  * HOLD NOTE         H-HAMMER    ^BEND UP AND DOWN 3x'S

E----------------------------------------------------------------------------
B------------------------------------5-8---------5-8-5-----------------------
G-----------------------7H57---7H57--------7H57--------7--5------------------
D------------------7*---------------------------------------7--5-------------
A-----------------------------------------------------------------7--5--3----
E----------------------------------------------------------------------------

E----------------------------------------------------------------------
B------------------------------------------15-13-----------------------
G---5---7----9----10------12---14---16-----------14-12-----------------
D-------------------------------------------------------14-12----------
A---3---5----7-----8------10---12---14-------------------------15-14---
E--------------------------------------------------------------------15

E---------------------------------------------------------------------------
B------17--20--17-------------17--20--17------------------------------------
G---19-------------19-17--19-------------20--19--18--------20--19--18--19---
D---------------------------------------------------19-20-----------------20
A---------------------------------------------------------------------------
E---------------------------------------------------------------------------

E-----------------------           E---
B---15^-----------------           B--- 
G--------12---14--------           G-14*
D-----------------14--12           D-14*
A-----------------------           A--- 
E-----------------------           E---


WELL I HOPE YOU CAN GET THAT I THINK YOU JUST GOT TO LISTEN TO THE SONG AND SEE
WHATS WHAT AND THEN YOU'LL GET IT. WELL THATS THE SOLO AND I HOPE YOU HAVE MORE
FUN WITH THAN I. IF YOU HAVE ANY QUESTION E-MAIL ME AT
            
Submit corrections

comments powered by Disqus
↑ Back to top | Guns N Roses Tabs for Don T Cry. Lyrics for acoustic guitar and electric guitar. Tablatures and chords are parodies/interpretations of the original songs. You may use it for private study, scholarship, research or language learning purposes only