>
 >
Dont Cry 2

Dont Cry 2 Guitar Tabs

Guns N Roses - Dont Cry 2 chords, tabs, tablatures, lyrics

Guitar lessons | Add/correct | Request | Top 50 tabs Artists:  A B C D E F G H I J K L M N O P Q R S T U V W X Y Z 0-9

Dont Cry 2 Guitar Tabs – Guns N Roses

CD, Sheet music, Poster

Do you like Dont Cry 2? Share with your friends now
Tabs
Gtr I (Eb Ab Db Gb Bb Eb) - 'Clean'
Gtr II (Eb Ab Db Gb Bb Eb) - 'Dist.'
Gtr III (Eb Ab Db Gb Bb Eb) - 'Clean 2'
Gtr IV (Eb Ab Db Gb Bb Eb) - 'Clean 3'
Gtr V (Eb Ab Db Gb Bb Eb) - 'R.S.'
Gtr VI (Eb Ab Db Gb Bb Eb) - 'Dist. 2'


 Intro
  Rock Ballad Q=62
               Am            D
 4/4
  Gtr I
  H    Q  Q    E S S S S S S E S S S S S S
|------------|-------0-------------1-------|
|------------|---------1---------3---3-----|
|------------|-----2-----2-----2-------2---|
|------------|---2---------0-0-------------|
|------------|-0-------------------------0-|
|---------3--|-----------------------------|
|
| Gtr II
| W            W
|------------|-----------------------------|
|------------|-----------------------------|
|------------|-----------------------------|
|------------|-----------------------------|
|------------|-----------------------------|
|------------|-----------------------------|


  G               C
  S S S S S S S S  S      S S S S S S S
|---------3-----------------------------|
|-----------3---------------------------|
|-------0-----0-------------0-----0-----|
|-----0-------------------0-----0-------|
|---2-----------0--3----------2-----3-2-|
|-3-------------------------------------|
|
|                  <
| H                H
|---------------------------------------|
|---------------------------------------|
|-----------------[2]pb4================|
|---------------------------------------|
|---------------------------------------|
|---------------------------------------|


  Am                        D
    E     S   S   S   S S S   E   S S S S S S
|-----------------0-------------------1-------||
|---------------------1-------------3---3-----||
|-------------2---------2---------2-------2---||
|---------2---------------0---0---------------||
|---0---------------------------------------0-||
|---------------------------------------------||
|
|  +E    +E      +Q          +H
|---------------------------------------------||
|---------------------------------------------||
|-([2])r([2])---([2])-------([2])-------------||
|---------------------------------------------||
|---------------------------------------------||
|---------------------------------------------||


  G                      A5
 2/4                    4/4
   S  S S S +S  S S S     W
|---------------------||--------||
|---------------------||--------||
|---------0-(0)-------||--------||
|-------0-------------||--2-----||
|-----2---------------||--0-----||
|--3------------2-3-4-||--------||
|
| +H                     +W
|---------------------||--------||
|---------------------||--------||
|-(2)-----------------||-(2)----||
|---------------------||--------||
|---------------------||--------||
|---------------------||--------||


 1st Verse
  Am            D               G               C
  E S S S S S S E S S S S S S   S S S S S S S S S S S S S S S S
|-------0-------------1-------|---------3-----------------------|
|---------1---------3---3-----|-----------3---------------------|
|-----2-----2-----2-------2---|-------0-----0-------0-----0-----|
|---2---------0-0-----------0-|-----0-------------0-----0-------|
|-0---------------------------|---2-----------0-3-----2-----3-2-|
|-----------------------------|-3-------------------------------|
|
| Gtr III
| Q     S S S S Q     S S S S   Q       S S S S S S S S S S S S
|-------0-------------1-------|---------3-----------------------|
|---------1---1---------3-----|-----------0---0-----------------|
|-----------2-------------2-0-|-0-----------0-------0-----0-----|
|---------------0-------------|-0-----------------2-----0-------|
|-0---------------------------|-----------------3-----2-----3-2-|
|-----------------------------|-3-------------------------------|
|
| Gtr IV
| H                             H
|-----------------------------|---------------------------------|
|-----------------------------|---------------------------------|
|-----------------------------|---------------------------------|
|-----------------------------|---------------------------------|
|-----------------------------|---------------------------------|
|-----------------------------|---------------------------------|


    Am             D
    E  S S S S S S E S S S S S S
|----------0-------------1-------|
|------------1---------3---3-----|
|--------2-----2-----2-------2---|
|------2---------0-0-----------0-|
|---0----------------------------|
|--------------------------------|
|
|   Q      S S S S Q     E   S S
|----------0-------------1-------|
|------------1---1-------------0-|
|--------------2-------------2---|
|------------------0-------------|
|---0----------------------------|
|--------------------------------|
|
| a H.                   Q
|--------------------------------|
|-8p5----------------------------|
|--------------------------------|
|--------------------------------|
|--------------------------------|
|--------------------------------|


  G                C
  S  S S S S S S S S  S S S  S  S S S
|----------3--------------------------|
|------------3------------------------|
|--------0-----0--------0-------0-----|
|------0--------------2------0--------|
|----2-----------0-3------2-------3-2-|
|-3-----------------------------------|
|
| Q        S S S S S  S S S  S  S S S
|----------3--------------------------|
|------------0---0--------------------|
|-0------------0--------0-------0-----|
|-0-------------------2------0--------|
|------------------3------2-------3-2-|
|-3-----------------------------------|
|
| Q.           E   E.     S +E    E
|-------------------------------------|
|-------------------------------------|
|-7------------4---5------4-(4)-------|
|-------------------------------------|
|-------------------------------------|
|-------------------------------------|


    Am             D               G                C
    E  S S S S S S E S S S S S S   S  S S S S S S S S  S S S  S  S S S
|--------3-0-------------1-------|----------3---------------------------|
|------------1---------3---3-----|------------3-------------------------|
|------0-------2-----2-------2---|--------0-----0--------0-------0------|
|----------------0-0-----------0-|------0--------------2------0---------|
|---0----------------------------|----2-----------0-3------2-------3-2--|
|--------------------------------|-3------------------------------------|
|
|   Q      S S S S Q     E   S S   Q        S S S S S  S S S  S  S S S
|----------0-------------1-------|----------3---------------------------|
|------------1---1-------------0-|------------0---0---------------------|
|--------------2-------------2---|-0------------0--------0-------0------|
|------------------0-------------|-0-------------------2------0---------|
|---0----------------------------|------------------3------2-------3-2--|
|--------------------------------|-3------------------------------------|
|
| a H.                   Q         Q.           E   E.     S +E    E
|--------------------------------|--------------------------------------|
|-8p5----------------------------|--------------------------------------|
|--------------------------------|-7------------4---5------4-(4)--------|
|--------------------------------|--------------------------------------|
|--------------------------------|--------------------------------------|
|--------------------------------|--------------------------------------|


  Am                 D
  E    S S  S  S S S E    S S  S  S S S
|-----------0------------------1--------|
|--------------1------------3-----3-----|
|--------2-------2--------2---------2---|
|------2-----------0-0----------------0-|
|-0-------------------------------------|
|---------------------------------------|
|
| Q         S  S S S Q         E    S S
|-----------0------------------1--------|
|--------------1---1------------------0-|
|----------------2------------------2---|
|--------------------0------------------|
|-0-------------------------------------|
|---------------------------------------|
|
| S E.     +Q        S E.     +Q
|---------------------------------------|
|-8p5------(5)-------8p5------(5)-------|
|---------------------------------------|
|---------------------------------------|
|---------------------------------------|
|---------------------------------------|


                                Chorus
  G               C              Csus4/F       G5
  S S S S S S S S S S E E S S    S E. E.     S Q       E S S
|---------3-------------------||---------------3-------3-------|
|-----------3-----------------||-1----1--------3-------3-------|
|-------0-----0-------0---x-x-||-0h2--2------0-0-------0-------|
|-----0-------------2-----x-x-||-3----3------0-0-------0-------|
|---2-----------0-3-----2-x-x-||-3----3------------------3-2---|
|-3---------------------------||-1----1--------3-------3-------|
|
| Q       S S S S S S E E E      S E. S  S S S S S S S E S S
|---------3-------------------||-------------------------------|
|-----------0---0-------------||-1----1----1---------3-3-------|
|-0-----------0-------0-------||-0h2--2--0-2-0-----0-0-0-------|
|-0-----------------2---------||-3----3--3-3-3---0-------------|
|-----------------3-----2-0---||-3-----------------------3-2---|
|-3---------------------------||-1-------------3---------------|
|
| H               H              W
|-----------------------------||-------------------------------|
|-----------------------------||-------------------------------|
|-7---------------------------||-------------------------------|
|-----------------------------||-------------------------------|
|-----------------------------||-------------------------------|
|-----------------------------||-------------------------------|


  Am                                    F
  Q       +E.     S  E    E   S S S S   S S S S  E    E   Q.     E
|-0-------(0)-------------------------|-1-1-1-1--1-----------------|
|-1-------(1)-----x--x----x---x-x-x-x-|-1-1-1-1--1-----------------|
|-2-------(2)-----x--x----x---x-x-x-x-|-2-2-2-2--2--------0--------|
|-2-------(2)-----x--x----x---x-x-x-x-|-3-3-3-3--3----0----------0-|
|-0-------(0)-------------------------|-3--------------------------|
|-------------------------------------|-1--------------------------|
|
| S S S S  S  S S S +S  S S S S S S S   S S S S +S  S S S E  E E E
|-----------------0-(0)---------------|-------1-(1)----------------|
|-------0h=1------------1-----0h1-----|-----1-------1----------3---|
|-----2-------2-----------2-------2-0-|---2---------0h2-2----0-----|
|---2-----------2-----------2---------|-3-----------------0------0-|
|-0-----------------------------------|-------------------2--------|
|-------------------------------------|----------------------------|


  Am        D5/E          Am/E
  E S S S S S S   S S   S S   +S  S S   S
|-------------------0----------------------|
|-----1-1---3-3---3p1---x-1---(1)---0------|
|---2-2-2---2-2---2-----x-2---(2)---0------|
|---2-----2-2-2---2-----x-2---(2)-0-----0--|
|-0----------------------------------------|
|------------------------------------------|
|
| E E   S S S S a S S a S.  T  S  S T T S
|-------------------0----------------------|
|-------0h1---1-3s5---5s3p==1--3--1--------|
|---2-------------------------------2p0----|
|-----------2---------------------------2--|
|-0----------------------------------------|
|------------------------------------------|


  F               G5
  e   S S E   S S E Q.
|----------------------------------|
|-----1---1---1-0-3-3--------------|
|-2---2p0-2---2-0-0-0--------------|
|-3---3---3---3-0-0-0--------------|
|----------------------------------|
|-----------------3-3--------------|
|
| S S S S S S S S E S  S +S  S S S
|----------------------------------|
|-----1---0h1----------3-(3)-------|
|---2---2-----2-0---0--------0---0-|
|-3-----------3--------------------|
|-----------------2------------2---|
|----------------------------------|


  C               Am      G5        F          G5
  E   S S E   S S S S S S S S S S   Q  S S S S E S S +E  S S
|-------------3-----0-5---------3-|-1------------3-------------|
|-1-----1-------1-1-----1-----1---|-1------1---3-3-3-(3)-------|
|-0---0-----------2---------0-----|-2--0h2-2-0-0---0-(0)-------|
|-2---------------2-------0-------|-3--3---3-0-0---------------|
|-3-------2-------0---------------|-3--------------------2-0---|
|-------------------------3-------|-1----------3---------------|
|
| S S S S S S S S S S S S S S S S   Q  S S S S E E    E  E
|---------------------------------|-1-----------------3--------|
|-------1-------1-------1---------|-1------1---3---------0-----|
|-----0-------0-------2---------0-|-2--0h2---0-0-0-------0-----|
|---2-------0-------2---------0---|-3----------0-0-------0-----|
|-3-------2-------0---------2-----|-3--------------------------|
|-------------------------3-------|-1----------3---------------|


  Am
  W
  E. S +S  Q  S +S  S S S +E
|-----------------------------||
|-1-----------0-(0)h1---------||
|-2--------2------------2-(2)-||
|-2--2-(2)------------2-------||
|-0---------------------------||
|-----------------------------||
|
| W
|-0---------------------------||
|-1---------------------------||
|-2---------------------------||
|-2---------------------------||
|-0---------------------------||
|-----------------------------||


 2nd Verse
  Am           Dm           G5
  Gtr IV
  Q.       S S Q.     S S   H           H
  |        | | |      | |   |
  /        / / /      / /   /

  H            H            H           H
|-------------------------|------------------------------|
|-5-----------------------|------------------------------|
|-------------------------|-7----------------------------|
|-------------------------|------------------------------|
|-------------------------|------------------------------|
|-------------------------|------------------------------|
|
| E  E S S S S E  E E S S   E S S E S S S S S S S S S S
|-------------------1-----|-------3----------------------|
|------0h1--------3-----0-|-----0-----0------------------|
|----2----------------2---|-0-0-----0-------0-----0------|
|----------2-2-0----------|-0-------------2-----0--------|
|-0-----------------------|-------------3-----2-----3-2--|
|-------------------------|-3----------------------------|


     Am            Dm                G5
  E  S S +S  S S S E   Q       S S   E S S E   S S H
  |  | |  |  | | | |   |       | |   | | | |   | |
  o  / /  /  / / / /   /       / /   / / / /   / /

  E.   S +Q        H                 H             H
|----------------------------------|-------------------------------|
|-8----5-(5)-----------------------|-------------------------------|
|----------------------------------|-7-----------------------------|
|----------------------------------|-------------------------------|
|----------------------------------|-------------------------------|
|----------------------------------|-------------------------------|
|
| E  E    S  S S S S S S S S S S S   E S S S S S S S S S S S S S S
|---------0----------------1-------|-------3-----------------------|
|------------1---1-----3-----3-----|---------0---0-----------------|
|----2---------2-----2---2-----2-0-|-----0-----0-------0-----0-----|
|------------------0---------------|---0-------------2-----0-------|
|-0--------------------------------|---------------3-----2-----3-2-|
|----------------------------------|-3-----------------------------|


     Am                 DmDsus2  Dm    G5
  E  S S +S S S S +E    S S +E   S S   E   Q       E   H
  |  | |  | | | |  |    | |  |   | |   |   |       |
  o  / /  / / / /  o    / /  /   / /   /   /       /

  E.   S +Q        E.     S +Q         H               H
|------------------------------------|----------------------------------|
|-8----5-(5)-------8------5-(5)------|----------------------------------|
|------------------------------------|-7--------------------------------|
|------------------------------------|----------------------------------|
|------------------------------------|----------------------------------|
|------------------------------------|----------------------------------|
|
| E  E    S S S S  S  S S S  S S S S   S S S S S S S S S S S S S S S S
|----------------------------0h1-----|---------3------------------------|
|---------0h1-----------3----------0-|-------0---0---0------------------|
|----2----------------2---2------2---|---0---------0-------0-----0------|
|-------------2-2--0-----------------|-----0-------------2-----0--------|
|-0----------------------------------|-----------------3-----2-----3-2--|
|------------------------------------|-3--------------------------------|


     Am                 DmDsus2 G5
  E  S S +S  S S S E    S S +S  S S S
  |  | |  |  | | | |    | |  |  | | |
  o  / /  /  / / / o    / /  /  / / /

  E.   S +Q        E.     S +Q
|-------------------------------------||
|-8----5-(5)-------8------5-(5)-------||
|-------------------------------------||
|-------------------------------------||
|-------------------------------------||
|-------------------------------------||
|
| E  S S  S  S S S S  S S S  E    S S
|------0--0---------------0--1--------||
|------------1---1------3-----------0-||
|----2---------2------2-----------2---||
|------------------0------------------||
|-0-----------------------------------||
|-------------------------------------||


  G5               C       B/A     Am      G
 2/4              4/4
  E S S E   E      W
  | | | |   |
  / / / /   /

  H                W
|---------------||----------------------------------||
|---------------||----------------------------------||
|-7-------------||----------------------------------||
|---------------||----------------------------------||
|---------------||----------------------------------||
|---------------||----------------------------------||
|
| E S S S S S S    S S S S S S S S S S S S S S S S
|-------3-------||----------------------------------||
|-3-------3---0-||-------1-------1-------1----------||
|-----------0---||-----0-------0-------2---------0--||
|---0-0---------||---2-------0-------2---------0----||
|---------------||-3-------2-------0---------2------||
|---------------||-------------------------3--------||


 Chorus
  F            G5                    Am      Asus4 Am7 Am
  Q    S S S S E   E   E   S S   E   S S E   S S S S S S +S S S S
  |    | | | | |   |   |   | |   |   | | |   | | | | | |  | | | |
  /    / / / / /   /   /   / /   o   / / /   / / / / / /  / / / /

  S E. S S S S S S S S S S S S   S S S S S S S S S S S S  S S E
|------------------------------|-----------------3-0--------------|
|-1----1-1-1-1-------3---------|-------0h1-----------1------1-----|
|-0h2--0-2-2-0-----0---0-------|-----2-----2---2-------2----------|
|-3----3-3-3-3---0-------0-----|---2---------2------------2-------|
|-3------------2-----------3-2-|-0----------------------------3---|
|-1----------------------------|----------------------------------|


  F                                Am          AsAm4      G5
  E   Q.        E E   +S S S S   E S S E   S S S S S S +S S S S
  |   |         | |    | | | |   | | | |   | | | | | |  | | | |
  /   /         o o    / o o o   / / / /   / / / / / /  / / / /

  S S S S E S S E S S  E   S S   E S S S S S S S S S S  S S S S
|------------------------------|-----------0-----0-0----0-------|
|---------1-1-1-----3--3-------|-----1-3s5---5s8---8s5--5s3-3p1-|
|-----0h2-2-2-0---0------------|---2----------------------------|
|---3-----3-3-3----------------|--------------------------------|
|-3-------------2----------2-0-|-0------------------------------|
|------------------------------|--------------------------------|


  F               G5            C5 G/BA5 G5
                                Gtr V
  E E S S S S S S E    E  S S   Q  Q  Q  Q
  | | | | | | | | |    |  | |   |  |  |  |
  / / / / / / o o /    /  / /   /  /  /  /

  Q   S S S S S S S S +E  S S   W
|-----------------------------|-------------|
|-1-------1---------3-(3)-----|-------------|
|-----0h2---0-----0-----------|-------------|
|-----3---------0-------------|-------------|
|-------------2-----------3-2-|-------------|
|-----------------------------|-------------|


              Guitar Solo
  F5   G5      A5
  H    H        H     +S S S S E     E
  |    |        |      | | | | |     |
  /    /        /      / / / / /     /

            Gtr II
                ~~~
                                     |-3--|
  W             H.             E    +S  S S
|-----------||------------------------------|
|-----------||------------------------------|
|-----------||-----------------7b9==(7)r7p5-|
|-----------||-[7]--------------------------|
|-----------||------------------------------|
|-----------||------------------------------|


  D5                    F5
  Q.              +E    H
  |                |    |
  /                /    /

      ~~~~~~~                    ~~~~~~
  E  +E  +S  S    +S  S S    +S  E +S  S +S  S
|----------------------------------------------|
|--------------------------------8-(8)---------|
|-7--(7)-(7)-7pb8r(7)p5-7b9==(7)-------7r(7)p5-|
|----------------------------------------------|
|----------------------------------------------|
|----------------------------------------------|


  G5                           A5   G5             F5                  G5
  H                            E.   S +Q           H                    H
  |                            |    |  |           |                    |
  /                            /    /  /           /                    /

                               ~~
  S    +S  S S S +S  S     +S  E  E    S   +S  E   S S S  S S  S  S  S  S  S  S  S  S  S  E
|------------------------------------------------|---------------------------------------------|
|----------8-8-----------------------------------|---------------------------------------13b17-|
|-7b9==(7)-----7r(7)-5b5.5-(5)-------------------|-7s9-9s10------------------------12h14-------|
|------------------------------7--5--------------|---------------------10h12-12s14-------------|
|--------------------------------------5b6r(5)-3-|-5s7-7s=8-8h10-10s12-------------------------|
|------------------------------------------------|---------------------------------------------|


  A5                                                            G5
   H                           +S     S  S     S     S     S     E
   |                            |     |  |     |     |     |     |
   /                            /     /  /     /     /     /     /

           ~~
   E       E  S  S  T  T  T  T  T  T  S  T  T  T  T  S     T  T  S  +S
|------------------------------------------------------------------------|
|-13b13.5----------------------------------------------------------------|
|---------14-12----------------------------------------------------------|
|---------------14-13h14p13p12-13p12-10-12p10-------10b11----------------|
|---------------------------------------------12p10-------12p10-12-(12)\-|
|------------------------------------------------------------------------|


  F5                         G5
   H                          H
   |                          |
   /                          /

   E      S  S  S  S  +S   S  E      S  S  S  +S   S  S
|--------15-15-15-------------------15-15---------------|
|-15b17===========15r(15)p13-15b17========15r(15)-13-12-|
|-------------------------------------------------------|
|-------------------------------------------------------|
|-------------------------------------------------------|
|-------------------------------------------------------|


  E5                        F5
   E    S    S  E    S    S  E    S    S  S  S  S    S
   |    |    |  |    |    |  |    |    |  |  |  |    |
   /    /    /  /    /    /  /    /    /  /  /  /    /

                                                ~~~~~~~~
   |---3---|    |---3---|    |---3---|
   E  E    E    E  E    E    E  E    E    S  S  E
|----------------------------------------13------------|
|---------12S==15-13---12---13--------------13-15b17---|
|----13------------------------14----------------------|
|-14--------------------------------15-----------------|
|------------------------------------------------------|
|------------------------------------------------------|


                           G5
   Q.               S S     Q.                S S
   |                | |     |                 | |
   /                / /     /                 / x

 ~~~~~
   Q    S      +S   S S    +S  S S S S    +S  S T T
|------------------------------5--------------------|
|-15---15pb17r(15)p13-8b10-(8)---8-5------------x-x-|
|------------------------------------7pb9r(7)p5-x-x-|
|---------------------------------------------------|
|---------------------------------------------------|
|---------------------------------------------------|


                         3rd Verse
  A5                      Dm                     G5
  W                        W
  |
  /

                       Gtr I
  W                        E.     S  E       S S Q     +E    a  S     S
|----------------------||--1------1--1-------1-0-3-----(3)--------------|
|----------------------||--3------3--3-------3-0-3-----(3)--------------|
|----------------------||--2------2--2-------2-0-0-----(0)------------0-|
|----------------------||--0------0--0-------0-0-0-----(0)--------------|
|----------------------||------------------------------------1s=2-------|
|----------------------||------------------------3-----(3)--------------|
|
|                      Gtr III
| W                        S  S S S  S     S S S E S S  S  S    S     S
|----------------------||------------1------------------3---------------|
|----------------------||-------3----------3---3-----------0----------0-|
|----------------------||-----2---2----------2------------------0-------|
|----------------------||--3-------------------------0------------------|
|----------------------||--------------------------2--------------------|
|----------------------||------------------------3----------------------|
|
| Gtr VI
|        ~~~~~~~~~
| Q     +Q   +Q.   +E     +Q         H                 +E      +E
|----------------------||-----------------------------------------------|
|-8--------------------||-----------[5]b6==============(5)r====(5)b6====|
|-7b9===(7)--(7)r==(7)-||-(7)-------------------------------------------|
|----------------------||-----------------------------------------------|
|----------------------||-----------------------------------------------|
|----------------------||-----------------------------------------------|


  C         B/A           A
    W
    S   S S S   S   S S S   S    S  S  S S S S S
|--------------------------------0-----0-----------|
|--------------------------------------1-----------|
|---------0---------0---------------2----0---2-0---|
|-------0-------0-------------------2----0---2-0---|
|---3-------2---------3-2---0--------------0-------|
|--------------------------------------------------|
|
|   S   S S S   S   S S S   S    S  S  S S S S S
|--------------------------------0-----------------|
|--------------------------------------0h1---------|
|---------0---------0---------------2------2---2---|
|-------2-------0----------------------------2-----|
|---3-------2---------3-2---0----------------------|
|--------------------------------------------------|
|
|                           \1.5
|  +Q          +Q          +S    S  E    Q
|--------------------------------------------------|
|-([5])-------([5])r======([5])----<5>-------------|
|--------------------------------------------------|
|--------------------------------------------------|
|--------------------------------------------------|
|--------------------------------------------------|


  D5            G5              C                     Am7/EsusAm/EEsus4
                                                          |---3---|
  E S S E   S S E S S S S S S   E   +S  S E   S S E   E   E   E   E
|---1-1-1---1-0---3-3-3-3-3-0-|-----------------------3---------------|
|---3-3-3---3-0---3-3-3-3-3-0-|-----------------------1---0---1---0---|
|-2-2-2-2---2-0-0-0-0-0-0-0-0-|---------0-------------2---2---2---2---|
|-0-0-0-0---0-0-0-0-0-0-0-0-0-|-----------------------2---2---2---2---|
|-----------------------------|-3---(3)---2---3-2-0-------------------|
|---------------3-------------|---------------------------------------|
|
| E S S S S S S E S S S S S S   S S  S  S S S S S S S S S S S   S   S
|-------0h1-----------3-------|---------------------------------------|
|-----3-----3-----------0---0-|-------------------------1-0-----------|
|---2---------0-----0-----0---|------0------0---------2-----2-------3-|
|-0---------------0-----------|---2-------0---------2-----------2-----|
|-----------------------------|-3-------2-----3-2-0-------------------|
|---------------3-------------|---------------------------------------|


  D5              G5
  E   S S E   S S E   S S S S S S
|-----1-1-1---1-0-----3-3-3-3-3-3-|
|-----3-3-3---2-0-----3-3-3-3-3-3-|
|-2---2-2-2---3-0-0---0-0-0-0-0-0-|
|-0---0-0-0---0-0-0---0-0-0-0-0-0-|
|---------------------------------|
|-----------------3---------------|
|
| S S S S S S S S S S S S S S S S
|-------1-0h1-------------3-------|
|-----3-------3-------------0---0-|
|---2-----------2-------0-----0---|
|-0-------------------0-----------|
|-------------------2-------------|
|-----------------3---------------|


  C                   Am/E              Dm          G5
  S S S S S S S S E   e   S S S S   E   S S E   S S E   S S S S S S
|---------------------0---0-0-----|-----1-1-1---1-0-----3-3-3-3-3-0-|
|---------------------1---0-1-1-0-|-----3-3-3---3-0-----3-3-3-3-3-0-|
|-----0-----0---------2---2-2-2-2-|-2---2-2-2---2-0-0---0-0-0-0-0-0-|
|---0-----0-----------2---2-2-2-2-|-0---0-0-0---0-0-0---0-0-0-0-0-0-|
|-3-----2-----3-2-0---------------|---------------------------------|
|---------------------------------|-----------------3---------------|
|
| S S S S S S S S S S S S S S S S   S S S S S S S S S S S S S S S S
|---------------------------------|---------0h1-------------3-------|
|-----------------------0h1-------|-----3---------------------0---0-|
|-----0-----0---------2-----2---2-|---2---2---------------0-----0---|
|---2-----0---------2---------2---|-0-----------0-0-----0-----------|
|-3-----2-----3-2-0---------------|-------------------2-------------|
|---------------------------------|-----------------3---------------|


                                    Chorus
  C5      G/B     A5      G5         F5         G5
  Gtr V
  Q       Q       Q       Q          H          H
  |       |       |       |          |          |
  /       /       /       /          /          /

  S S S S S S S S S S S S S S S S    Q  S S S S E S S +E  S S
|---------------------------------||-1--1-1-1-1-----3-(3)-----|
|-------1-------1-------1-------0-||-1--1-1-1-1-3-3-3-(3)-3-3-|
|-----0-------0-------2-------0---||-2--2-2-2-2-0-0-------0-0-|
|---2-------0-------2-------0-----||-3--3-3-3-3-0-0-------0-0-|
|-3-------2-------0---------------||-3------------------------|
|-------------------------3-------||-1----------3-------------|


  A5
   H                         S     S  S S  E       S S
   |                         |     |  | |  |       | |
   /                         /     /  / /  /       / /

                                      PM|
   E     S S  S S  S   S     S     S  S S  S   S   S S
|--------0-0--0-0--0-----------------------------------|
|--------1-1--1-1--1---3-----------1-------0h==1-------|
|--------2-2--2-2--2---2-----------2-------2-------2-0-|
|--------2-2--2-2--2---2-----------2-------2-------2-0-|
|--0----------------------------------0-0--------------|
|------------------------------------------------------|
|
| Gtr II
|                                  ~~~
|                      |---3----|
|  Q          E    S  +S   S    S  E.      S  +S   e
|------------------------------------------------------|
|-15b17======15---15-(15)-15---15-15------15r(15)-13---|
|------------------------------------------------------|
|------------------------------------------------------|
|------------------------------------------------------|
|------------------------------------------------------|


  F5                    G5               A5
   Q.               S S   H               Q.         S S  E           S   S  E        S     S
   |                | |   |               |          | |  |           |   |  |        |     |
   /                / /   /               /          / /  /           /   /  /        /     /

                                                     PM|
                                                                             |-----3-----|
   E     S S   S  S S S   E    E   E E    E    E S S S S  S    S      S   S  E    E      E
|--1-----------------------------------|------------------------------------------------------|
|--1-----1-1---1--1-1-----3----3---3-3-|---------0h1------1------------------1----3------3----|
|--2-----2-2---2--2-2-----0----0---0-0-|--2------2--------2------------------2----0------0----|
|--3-----3-3---3--3-3-3---0----0---0-0-|--2------2--------2------------------2----0------0----|
|--3-----3-3---3--3-3-3----------------|-------0-----0-0-------0------0---0--0----------------|
|--1-----1-1---1--1-1-1---3----3---3-3-|------------------------------------------3------3----|
|
|        ~~~~~~~~~                        ~~~~~
|  S  S  E    +Q         +E   +E   Q      H               S.      T  +S   S  E       +S     S
|--------------------------------------|-15b17-----------15b17---15-(15)-12-------------------|
|-15p13--------------------------------|------------------------------------15b16r==(15)p==13-|
|-------14---(14)-------(14)-(14)\-----|------------------------------------------------------|
|--------------------------------------|------------------------------------------------------|
|--------------------------------------|------------------------------------------------------|
|--------------------------------------|------------------------------------------------------|


  F5               G5
   H                H
   |                |
   /                /

   E  S  S S S S S  E  E E  E
|--1-----------------------------|
|--1--1--1-1-1-1-1--3--3-3--3----|
|--2--2--2-2-2-2-2--0--0-0--0----|
|--3--3--3-3-3-3-3--0--0-0--0----|
|--3--3--3-3-3-3-3---------------|
|--1--1--1-1-1-1-1--3--3-3--3----|
|
|     ~~~              ~~
|  E  Q.            E  Q    S  S
|--------------------------------|
|-15p13------------15-15---13-15-|
|--------------------------------|
|--------------------------------|
|--------------------------------|
|--------------------------------|


  C5          G/B      A5          G5
   Q           Q        Q           Q
   |           |        |           |
   /           /        /           /

   S    S S S  S S S S  S    S S S  S       S    S  S
|-----------------------------------------------------|
|-----------1--------1-----------1------------------0-|
|---------0--------0-----------2-----------------0----|
|-------2--------0-----------2--------------0---------|
|--3-----------2--------0-----------------------------|
|-----------------------------------3-----------------|
|
|              ~~
|  Q           Q        Q           S      +S   +E
|-----------------------------------------------------|
|-15b17-------15-------12b13-------12b13==(12)r(12)---|
|-----------------------------------------------------|
|-----------------------------------------------------|
|-----------------------------------------------------|
|-----------------------------------------------------|


  F5           G5                        F5                   G5
   Q.      S S  H                          Q.            S  S H
   |       | |  |                          |             |  | |
   /       / /  /                          /             /  / /

   Q   S S S S  S     S   S  S S S S S     E  S S   E    S  S S S S S S S S S
|--1---1-1-1-1--3-----3---3--3-3-3-3-3-|---1--1-1---1----1--1-3-3-3-3-3-3-3-3-|
|--1---1-1-1-1--3-----3---3--3-3-3-3-3-|---1--1-1---1----1--1-3-3-3-3-3-3-3-3-|
|--2---2-2-2-2--0-----0---0--0-0-0-0-0-|---2--2-2---2----2--2-0-0-0-0-0-0-0-0-|
|--3---3-3-3-3--0-----0---0--0-0-0-0-0-|---3--3-3---3----3--3-0-0-0-0-0-0-0-0-|
|--3---3-3-3-3-------------------------|---3--3-3---3----3--3-----------------|
|--1---1-1-1-1--3-----3---3--3-3-3-3-3-|---1--1-1---1----1--1-3-3-3-3-3-3-3-3-|
|
|  ~~~
|  H            E        +Q.              +Q       +E   +E    H
|--------------------------------------|--------------------------------------|
|-10-----------10b12====(10)-----------|-(10)-----(10)r(10)-------------------|
|--------------------------------------|--------------------------------------|
|--------------------------------------|--------------------------------------|
|--------------------------------------|--------------------------------------|
|--------------------------------------|--------------------------------------|


  F5           G5            F5  E5              F5
  H            Q       E   E     S S S S S S S S S S S S S S S S
  |            |       |   |     | | | | | | | | | | | | | | | |
  /            /       /   /     / / / / / / / / / / / / / / / /

  E. S S S S S S S S S S S S S   S S S S S S S S S S S S E   S S
|------------------------------|-0-----0-0-0-0-0-1-1-1-1-1---1-1-|
|----1-1---1---3-3-3-3-3-3-3-3-|-0---0---0-0-0-0-1-1-1-1-1---1-1-|
|-2----0h2-0---0-0-0-0-0-0-0-0-|-1-1-------------2-2-2-2-2---2-2-|
|-3----3-----3-0-0-0-0-0-0-0-0-|-2---------------3-3-3-3-3---3-3-|
|-3----------3-----------------|-2-------------------------------|
|-1------------3-3-3-3-3-3-3-3-|-0-------------------------------|


             G5
   H          H
   |          |
   /          /

   E E E S S  S  S  S S   S  S  S  S
|--1-1-1-1-1--3--3--3-3---3--3--3--3-|
|--1-1-1-1-1--3--3--3-3---3--3--3--3-|
|--2-2-2-2-2--0--0--0-0---0--0--0--0-|
|--3-3-3-3-3--0--0--0-0---0--0--0--0-|
|--3-3-3-3-3-------------------------|
|--1-1-1-1-1--3--3--3-3---3--3--3--3-|
|
| Gtr II
|  H          Q           E     S  S
|------------------------------------|
|------------------------------12h13-|
|------------------------------------|
|------------------------------------|
|------------------------------------|
|------------------------------------|
|
| Gtr VI
|  H          S  E.      +Q
|------------------------------------|
|------------------------------------|
|-10---------10s12------(12)---------|
|------------------------------------|
|--8----------8s10------(10)---------|
|------------------------------------|


  F5                         G5
   H                          H
   |                          |
   /                          /

   S  S  S S   S  S  S     S  E     S S  E     S  S
|-----------------------------3-----3-3--3-----3--3-|
|--1-----1-1---1-----1--------3-----3-3--3-----3--3-|
|--0h=2--2-2---0h=2--0h====2--0-----0-0--0-----0--0-|
|--3-----3-3---3-----3--------0-----0-0--0-----0--0-|
|--3-----3-3---3-----3------------------------------|
|--1-----1-1---1-----1--------3-----3-3--3-----3--3-|
|
|  ~~~                        ~~~
|  Q.                E        H
|---------------------------------------------------|
|-------------------15b17----15---------------------|
|-14------------------------------------------------|
|---------------------------------------------------|
|---------------------------------------------------|
|---------------------------------------------------|
|
|  S  E.      +E     S     S  S  E.      S  S  S  S
|---------------------------------------------------|
|---------------------------------------------15s12-|
|-12s14------(14)---12----14-14-16------16s14-------|
|---------------------------------------------12s=9-|
|-10s12------(12)---10----12-12s14------14s12-------|
|---------------------------------------------------|


                      H.=H
  F5              G5
   H               H
   |               |
   /               /

   Q   E   S    S  Q   E           S  S
|--1---1--------------------------------|
|--1---1---1-------3---3-----------3--0-|
|--2---2---2----0--0---0-----------0--0-|
|--3---3---3----0--0---0-----------0--0-|
|--3---3--------------------------------|
|--1---1-----------3---3-----------3----|
|
|                  ~~
|  Q.      E       Q   S      +S   S  S
|-13------15b17---15--------------------|
|---------------------15pb17r(15)-13----|
|------------------------------------14-|
|---------------------------------------|
|---------------------------------------|
|---------------------------------------|
|
|  Q.     +E       H
|---------------------------------------|
|-13-----(13)\--------------------------|
|---------------------------------------|
|-10-----(10)\--------------------------|
|---------------------------------------|
|---------------------------------------|


  C5
   W                         +W                    +H     H
   |                          |                     |
   /                          /                     /

                                                    >
   E  Q.   +H                +W                    +H     H
|-------------------------:---------------------:--------------|
|--1-(1)---(1)------------:--(1)----------------:--(1)---------|
|--0-(0)---(0)------------:--(0)----------------:--(0)---------|
|--0h=2----(2)------------:--(2)----------------:--(2)---------|
|--3-(3)---(3)------------:--(3)----------------:--(3)---------|
|-------------------------:---------------------:--------------|
|
|  W                         +W                    +H     H
|-------------------------:---------------------:--------------|
|-13----------------------:-(13)----------------:-(13)---------|
|-------------------------:---------------------:--------------|
|-------------------------:---------------------:--------------|
|-------------------------:---------------------:--------------|
|-------------------------:---------------------:--------------|
|
|                  <                      >
|  H        Q   E  E         +E   +Q.    +H        +H     H
|-------------------------:---------------------:--------------|
|-------------------------:---------------------:--------------|
|-----------------12pb14==:=(12)r(12)---(12)----:-(12)---------|
|-------------------------:---------------------:--------------|
|-------------------------:---------------------:--------------|
|-------------------------:---------------------:--------------|


 Free Time
  N.C.
   S  S  E  E  E  S  S  E  E  S  S
|-12-12----------12-12----13-------:
|-------13-13-13-------13----------:
|----------------------------12s14-:
|----------------------------------:
|----------------------------------:
|----------------------------------:


                                          >
   E  E  E  S  S  +S  S E a E E   S S E a E E H
|-13----12----10-(10)---8-------:------------------*|
|-------------------------------:------------------*|
|----12----10---------9---5h7-5-:-----5------------*|
|-------------------------------:-5h7--------------*|
|-------------------------------:-------6h7--------*|
|-------------------------------:------------------*|




--------------------------------------------------------------------------------


Duration Legend
---------------
W - whole; H - half; Q - quarter; E - 8th; S - 16th; T - 32nd; X - 64th; a - acciaccatura
+ - note tied to previous; . - note dotted; .. - note double dotted
Uncapitalized letters represent notes that are staccato (1/2 duration)
Irregular groupings are notated above the duration line
Duration letters will always appear directly above the note/fret number it represents the
duration for.  Duration letters with no fret number below them represent rests.  Multi-
bar rests are notated in the form Wxn, where n is the number of bars to rest for.  Low
melody durations appear below the staff

Tablature Legend
----------------
 h   - hammer-on
 p   - pull-off
 b   - bend
 pb  - pre-bend
 r   - bend release (if no number after the r, then release immediately)
 /\  - slide into or out of (from/to "nowhere")
 s   - legato slide
 S   - shift slide
 - natural harmonic
[n]  - artificial harmonic
n(n) - tapped harmonic
 ~   - vibrato
 tr  - trill
 T   - tap
 TP  - trem. picking
 PM  - palm muting
\n/  - tremolo bar dip; n = amount to dip
 \n  - tremolo bar down
 n/  - tremolo bar up
/n\  - tremolo bar inverted dip
 =   - hold bend; also acts as connecting device for hammers/pulls
 <> - volume swell (louder/softer)
 x   - on rhythm slash represents muted slash
 o   - on rhythm slash represents single note slash

Misc Legend
-----------
 |  - bar
||  - double bar
||o - repeat start
o|| - repeat end
*|  - double bar (ending)
 :  - bar (freetime)
 $  - Segno
 &  - Coda
Tempo markers -  = BPM(8/16=s8/s16), where s8 = swing 8ths, s16 = swing 16ths





Comments


Popular Guns N Roses tabs & chords
Catcher In The Rye Chords
Sweet Child O Mine Second Guitar Chords
Chinese Democracy 5 Tabs
Civial War Tabs
Estranged Piano Tabs
Live And Let Die Tabs
Patience 3 Tabs
The Godfather Theme 2 Tabs
The Godfather Theme 5 Tabs
You Ain't The First Tabs


Song lyrics



↑ Back to top | Tablatures and chords are parodies/interpretations of the original songs. You may use it for private study, scholarship, research or language learning purposes only
© 2014 AZChords.com Contact us | Privacy policy | DMCA | Add/correct tabs | Request tabs | Top 50 tabs