» » »

Guns N Roses, Don Cry Bass tabs (ver.1)

Artists:  A B C D E F G H I J K L M N O P Q R S T U V W X Y Z # 

Don Cry Bass tabs (ver.1)

Guns N Roses Tabs
 Rating:
4/5 (4 votes)
Don	 Cry lessons Tabs too difficult? Try these video lessons and learn fast
1
                Band-Guns n Roses
Song-Don’t Cry
Album-Use Your Illusion

Tuning: 1 half step down on E ( dizzy tunes down a half step on all of the strings but you don’t need 
to)

INTRO come in after the guitar leads you in
G--------------------------
D--------------------------
A-2-1-2-1—4-----------
Eb-----------5—-3—5---

Verses are all the same
G---------------------------------------------------------------------
D---------------------------------------------------------------------
A----4---2-1-2-1----4---2-1-2-1---4---2-1-2-1—4---2-1
Eb 5---3-----------5---3-----------5---3----------5---3-----5-

1st and 2nd chorus
G------------------------------------------------------------------------
D------------------------------------------------------------------------
A---------------------------------------------------2-1--------------------
E-1-1-3-3-5-5-5-3-1-1-3-3-5-5-5-3-1-1-3-3------5-3-1-1-3-3-5 

Solo
G------------------------------------------------------------------------
D------------------------------------------------------------------------
A-4--2--1----------------------------------------------------------------
E----------5-3-1-1-3-3-5-5-5-3-1-1-3-3-0-0-1-1-1-1-1-3-3-3-3-5

Last chorus:
G------------------------------------------------------------------------------------------------------
D------------------------------------------------------------------------------------------------------
A----------------------------------------------------2-1-----------------------------------------------
Eb-1-1-3-3-5-5-5-3-1-1-3-3-5-5-5-3-1-1-3-3------5-3-1-1-3-3-1-1--3-3-1-1-3-3-0-0-0-0-1-

G----------------------------------------
D-------------------------------------------
A----------------------------------------2
Eb-1-1-1-1-1-3-3-1-1-3-3-1-1-3-3-
            
Submit corrections

comments powered by Disqus
↑ Back to top | Guns N Roses Bass for Don Cry. Lyrics for acoustic guitar and electric guitar. 1 Tablatures and chords are parodies/interpretations of the original songs. You may use it for private study, scholarship, research or language learning purposes only