» » »

Guns N Roses, Crash Diet Tabs (ver.2)

Artists:  A B C D E F G H I J K L M N O P Q R S T U V W X Y Z # 

Crash Diet Tabs (ver.2)

Guns N Roses Tabs
 Rating:
4/5 (4 votes)
Crash Diet lessons Tabs too difficult? Try these video lessons and learn fast
                Guns N' Roses - Crash Diet

Tuning: Eb


Intro:

|-----------------------------------------|
|-----------------------------------------|
|-----0-------0----------0-------0--------|
|---4---4---4---4--4---2---2---2---2---2--|
|-7-------5------5---4-------3-------3----|
|-----------------------------------------|


Chorus:

play twice
|--------------------------------------------|
|--------------------------------------------|
|------9---4--5--------5---5-4-5-4-------4---|
|-2-2--9---4--5---5----5---5-4-5-4---5---4---|
|-2-2--7---2--3---5----3---3-2-3-2---5---2---|
|-0-0-------------3------------------3-------|

|--------------------------------------------|
|--------------------------------------------|
|------9---4--5--------5---5-4-5-4-------7---|
|-2-2--9---4--5---5----5---5-4-5-4---5---7---|
|-2-2--7---2--3---5----3---3-2-3-2---5---5---|
|-0-0-------------3------------------3-------|

then this
|-----------------------------|
|-----------------------------|
|-4-4-4-4-4---5---4-----------|
|-4-4-4-4-4---5---4---5---4---|
|-2-2-2-2-2---3---2---5---4---|
|---------------------3---2---|

  
Riff 1:

|----------------------------|
|----------------------------|
|------9------4---4444-5-4---|
|-2-2--9------4---4444-5-4---|
|-2-2--7------2---2222-3-2---|
|-0-0------------------------|

|----------------------------|
|----------------------------|
|------9------5----5555--4---|
|-2-2--9------5----5555--4---|
|-2-2--7------3----3333--2---|
|-0-0------------------------|

|-----------------------------|
|-----------------------------|
|-----------------------------|
|-5-5-5-5-5-5-5-5-5-----------|
|-5-5-5-5-5-5-5-5-5-----------|
|-3-3-3-3-3-3-3-3-3-----------|

    
Riff 2:

|-----------------------------|
|-----------------------------|
|-----9-9-4-4-5-5-5-4------4--|
|-2-2-9-9-4-4-5-5-5-4-5-2--4--|
|-2-2-7-7-2-2-3-3-----5-2--2--|
|-0-0-------------------0-----|


[Verse 1] w/Intro

Crash diet of reds'n'ludes
A shot of vitamin C and a bottle of booze
Too stupid to live with nothin' to lose
In your one track mind now
Where's that leave you?


[Chorus]

Drink'n'drive white lightning faster baby
Takin' your last ride
Now better be so careful or
you'll be dead before you time

Sorry you took mother's car now


[Verse 2] w/Intro

Tears in my eyes, baby please don't go
You've had one too many, now one for the road
fresh from detox, fresh from jail
Took your rehabilitation and you drove me to hell


[Chorus]

[Verse 3] w/Riff 1

Too soon, you thought you didn't mean it
Too late for the pressure and pain
Too bad for those who don't believe it
Ruby street still calls your name

[Guitar Solo] w/Riff 2


[Verse 4] w/Riff 2

Itchy trigger finger and the race to be alive
Smokin' a cig while you drink'n'drive
With no control of your life ahead
You're never gonna see it if you wind up dead

[Chorus]
Drink'n'drive white lightning faster
Takin' your last ride
Better be so careful or you'll
be dead before your time
Drink'n'drive white lightning baby
It's always on your mind
Push it to the limit baby,
do it one more time
Break it down
Break it down
Somethin's changin',
somethin's breakin'
You gotta be a brother,
of your family
Maybe one more time will make it
Sweet history,
Ooohhhh
If you don't care about yourself
Would you please leave me alive
Oooohhhh...You gonna
You gonna drink'n'drive
Oooohhhhh, Yeeaaah!
            
Submit corrections

comments powered by Disqus
↑ Back to top | Guns N Roses Tabs for Crash Diet. Lyrics for acoustic guitar and electric guitar. Tablatures and chords are parodies/interpretations of the original songs. You may use it for private study, scholarship, research or language learning purposes only