» » »

Black Leather Tabs (ver.1)

Artists:  A B C D E F G H I J K L M N O P Q R S T U V W X Y Z # 

Black Leather Tabs (ver.1)

Guns N Roses
Rating:
0/5 (0 votes)

Hard to play? Try these video lessons and learn fast.
                GUNS N'ROSES:BLACK LEATHER
(Originally recorded by Sex Pistols)

 -INTRO-

                    RIFF A:
e--|-------------|----------------------------------|
H--|-------------|----------------------------------|
G--|-------------|--------------3---------------3---|
D--|---------8\5-|--5-5-3-3-5-5-3-5-5-5-3-3-5-5-3---|
A--|---------8\5-|--5-5-3-3-5-5-3-5-5-5-3-3-5-5-----|
E--|-------------|----------------------------------|

PLAY RIFF A 9 TIMES TILL THE END OF THE INTRO.
IN THE RIFF A THE FIRST FOURTEEN NOTES(CHORDS) ARE SIXTEENTH NOTES,THE LAST NOTE (CHORD) IS AN EIGHTH NOTE.
 
 -VERSE-

     RIFF B:                                   
e--|----------------------------------|  
H--|----------------------------------|  
G--|--------------3---------------3---|  
D--|--5-5-3-3-5-5-3-5-5-5-3-3-5-5-3---|  
A--|--5-5-3-3-5-5---5-5-5-3-3-5-5-----|  
E--|----------------------------------|  
      * * * * * *   * * * * * * * 
     RIFF C:
e--|----------------------------------|
H--|----------------------------------|
G--|--------------3---------------3---|
D--|--5-5-3-3-5-5---5---5-3-3-5-5-----|
A--|----------------------------------|
E--|----------------------------------|
      * * * * * *   *   * * * * *
THE "*" MEANS PALM MUTED CHORD OR NOTE.
DURING THE VERSE PLAY RIFF B OR RIFF C.

 -PRE-CHORUS-                     

         |A5#                  |C5                         |RIFF A                                                                                                             
Well, you can't refuse and you just can't choose what she's gonna do.
         |A5#                  |C5                         |RIFF A  
Well, you can't refuse and you just can't choose what she's gonna do.

 -CHORUS-

IT'S VERY SIMPLE:
|D5# |   |F5  |    |
            
Hard to play? Try these video lessons and learn fast. | Correct




comments powered by Disqus
↑ Back to top | Tablatures and chords are parodies/interpretations of the original songs. You may use it for private study, scholarship, research or language learning purposes only