» » »

Guns N Roses, Big Dumb Sex Bass tabs (ver.2)

Artists:  A B C D E F G H I J K L M N O P Q R S T U V W X Y Z # 

Big Dumb Sex Bass tabs (ver.2)

Guns N Roses Tabs
 Rating:
4/5 (4 votes)
Big Dumb Sex lessons Tabs too difficult? Try these video lessons and learn fast
                Big Dumb Sex (Buick McKane), Guns n Roses' cover of T Rex's original. 

Tune a half step down, (standard Guns n Roses tuning)

All learned by ear

Intro
Gb||----------------------------------------------------||
Db||----------------5---------5----------------------5--||
Ab||-5-7-5-7-5-7-5-7-7-5-7-5-7-7-5----5-7-5-7-5-7-5-7-7-||
Eb||------------------------------7-5-------------------||
                                     
Chorus                             
Gb||--------------------------------------------------------------------------------||
Db||----------------5---------5----------------------5-----------------5---------5--||
Ab||-5-7-5-7-5-7-5-7-7-5-7-5-7-7-5----5-7-5-7-5-7-5-7-7-5-7-5-7-5-7-5-7-7-5-7-5-7-7-||
Eb||------------------------------7-5-----------------------------------------------||


Pre Chorus
Gb||----------------------------------------------------||
Db||----------------5---------5----------------------5--||
Ab||-5-7-5-7-5-7-5-7-7-5-7-5-7-7-5----5-7-5-7-5-7-5-7-7-||
Eb||------------------------------7-5-------------------||

Chorus 2
Gb||-------------------------------------------------------------------------------------|
Db||----------------5---------5----------------------5---------5-----------------------5-|
Ab||-5-7-5-7-5-7-5-7-7-5-7-5-7-7-5----5-7-5-7-5-7-5-7-7-5-7-5-7-7-5-----5-7-5-7-5-7-5-7-7|
Eb||------------------------------7-5------------------------------7-5-------------------|

-----------------||
-----------------||
-5-7-5-7-5-7-5-7-||
-----------------||


Guitar Solo                x4
Gb||---------------------||
Db||*----------------5--*||
Ab||*-5-7-5-7-5-7-5-7-7-*||
Eb||---------------------||

Outro
Gb||----------||
Db||*--5-----*||
Ab||*-5-7-5--*||   Repeat the outro until about 5 seconds left in the song
Eb||-------7--||
            
Submit corrections

comments powered by Disqus
↑ Back to top | Guns N Roses Bass for Big Dumb Sex. Lyrics for acoustic guitar and electric guitar. Tablatures and chords are parodies/interpretations of the original songs. You may use it for private study, scholarship, research or language learning purposes only