>
 >
Better 2

Better 2 Guitar Tabs

Guns N Roses - Better 2 chords, tabs, tablatures, lyrics

Guitar lessons | Add/correct | Request | Top 50 tabs Artists:  A B C D E F G H I J K L M N O P Q R S T U V W X Y Z 0-9

Better 2 Guitar Tabs – Guns N Roses

CD, Sheet music, Poster

Do you like Better 2? Share with your friends now
Bass TabsBass Tabs v2Bass Tabs v3Drum TabsTabsTabs v2Tabs v3Tabs v4
 Intro

 -------17------------17-----------17------------
 -19b21-----pb19(21)------pb19(21)-----pb19(21)--
 ------------------------------------------------
 ------------------------------------------------
 ------------------------------------------------
 ------------------------------------------------

 -------17-17------------------------------------------
 -19b21--------pb19(21)--18---20-18-20-18---17-18------
 ------------------------------------------------------
 ------------------------------------------------------
 ------------------------------------------------------
 ------------------------------------------------------

 ------------------------------------------------
 -13b14-pb15(16)-17-18---------------------------
 ------------------------------------------------ 
 ------------------------------------------------ 3 times
 ------------------------------------------------
 ------------------------------------------------

 Main Riff
 ---------------------------------------------
 ---------------------------------------------
 -3-3-3-3---3-3-3---3---3-3-3-----------------
 -3-3-3-3---3-3-3---3---3-3-3-----------------
 -1-1-1-1---1-1-1---1---1-1-1-----------------
 ---------------------------------------------

 ---------------------------------------------|
 ---------------------------------------------|
 -7-7-7-7---7-7-7---10---10-7-10-7---7--------|
 -7-7-7-7---7-7-7---10---10-7-10-7---7--------|
 -5-5-5-5---5-5-5---8----8--5-8--5---5--------|
 ---------------------------------------------|
 
 Pre-Chorus
 ---------------------------------------------
 ---------------------------------------------
 -3---3---5---5-------------------------------
 -3-3-3---5-5-5-------------------------------
 -1-3-1---3-5-3-------------------------------
 ---1-------3---------------------------------

 Chorus
 ---------------------------------------------
 ---------------------------------------------
 -3-6-10-6-8/6--3-6-10-6-8/6--3-6-10-8/6------
 -3-6-10-6-8/6--3-6-10-6-8/6--3-6-10-8/6------
 -1-4-8--4-6/4--1-4-8--4-6/4--1-4-8--6/4------
 ---------------------------------------------

 Pre-Chorus
 ---------------------------------------------
 ---------------------------------------------
 -3---3--5---5--------------------------------
 -3-3-3--5-5-5--------------------------------
 -1-3-1--3-5-3--------------------------------
 ---1------3----------------------------------

Main Riff
 ---------------------------------------------
 ---------------------------------------------
 -3-3-3-3---3-3-3---3---3-3-3-----------------
 -3-3-3-3---3-3-3---3---3-3-3-----------------
 -1-1-1-1---1-1-1---1---1-1-1-----------------
 ---------------------------------------------
                                                   x4
 ---------------------------------------------|
 ---------------------------------------------|
 -7-7-7-7---7-7-7---10---10-7-10-7---7--------|
 -7-7-7-7---7-7-7---10---10-7-10-7---7--------|
 -5-5-5-5---5-5-5---8----8--5-8--5---5--------|
 ---------------------------------------------|

 Pre-Chorus
 ---------------------------------------------
 ---------------------------------------------
 -3---3--5---5--------------------------------
 -3-3-3--5-5-5--------------------------------
 -1-3-1--3-5-3--------------------------------
 ---1------3----------------------------------

  Chorus
 ---------------------------------------------
 ---------------------------------------------
 -3-6-10-6-8/6--3-6-10-6-8/6--3-6-10-8/6------
 -3-6-10-6-8/6--3-6-10-6-8/6--3-6-10-8/6------
 -1-4-8--4-6/4--1-4-8--4-6/4--1-4-8--6/4------
 ---------------------------------------------

 -------------------------------------------------
 -------------------------------------------------
 -------------------------------------------------
 -4-5-7-4-5-7-4-5-7-4-5-7-4-5-7-4-5-7-4-5-7-4-5-7-
 -4-5-7-4-5-7-4-5-7-4-5-7-4-5-7-4-5-7-4-5-7-4-5-7-
 -2-3-5-2-3-5-2-3-5-2-3-5-2-3-5-2-3-5-2-3-5-2-3-5-

 -----------------------------
 -----------------------------
 ---9/7---9/7-----9/7----3/7--
 -8-9/7-8-9/7---8-9/7-8--3/7-- x3
 -8-7/5-8-7/5---8-7/5-8--1/5--
 -6-----6-------6-----6-------

 ------------------------------
 ------------------------------
 ---9/7---9/7-----9/7----7/10--
 -8-9/7-8-9/7---8-9/7-8--7/10--
 -8-7/5-8-7/5---8-7/5-8--5/8---
 -6-----6-------6-----6--------
 
 -----------------------------
 -----------------------------
 ---9/7---9/7-----9/7----3/7--
 -8-9/7-8-9/7---8-9/7-8--3/7-- x4
 -8-7/5-8-7/5---8-7/5-8--1/5--
 -6-----6-------6-----6-------

 --------------------------------------
 --------------------------------------
 --------------------------------------
 -6-6-8/9\8-4-6-6-8/9\8-4-6-6-8/9\8-4--
 -6-6-8/9\8-4-6-6-8/9\8-4-6-6-8/9\8-4--
 -4-4-6/7\6-2-4-4-6/7\6-2-4-4-6/7\6-2--
 
 Pre-Chorus
 ---------------------------------------------
 ---------------------------------------------
 -3---3--5---5--------------------------------
 -3-3-3--5-5-5--------------------------------
 -1-3-1--3-5-3--------------------------------
 ---1------3----------------------------------

 Chorus
 ---------------------------------------------
 ---------------------------------------------
 -3-6-10-6-8/6--3-6-10-6-8/6------------------
 -3-6-10-6-8/6--3-6-10-6-8/6------------------
 -1-4-8--4-6/4--1-4-8--4-6/4------------------
 ---------------------------------------------

 ----------------------------------------------
 ----------------------------------------------
 -3---3--5---5-3-------------------------------
 -3-3-3--5-5-5-3-------------------------------
 -1-3-1--3-5-3-1-------------------------------
 ---1------3-----------------------------------


 Solo

----bu--bd------bu--bd--po-------------10/(14)-----|
-15(17)(15)--15(18)(15)(13)--15--13----------------|
---------------------------------------------------|
---------------------------------------------------|
---------------------------------------------------|
---------------------------------------------------|


-----------------------------------------------------|
------------sl--------------------------sl-----------|
----------14\(12)-------------------12/14--10--12----|
-17-15------------15-12--15-15--------------------12-|
-pm-pm-------------------pm-pm-----------------------|
-----------------------------------------------------|


-----bu--bd-----------bu--bd--po--------------------|sl
-15(17)(15)(17)--15(18)(15)(13)--15--13------15\----|
----------------------------------------------------|
----------------------------------------------------|
----------------------------------------------------|
----------------------------------------------------|


-------16(17)(16)--------13--15-------13----------------|
--sl---------------------------------17------15--17--18-|
-/14----------------------------------------------------|
--------------------------------------------------------|
--------------------------------------------------------|
--------------------------------------------------------|


----bu--bd--bu--bd--po----------------------------------------|
-17(18)(17)(18)(17)(15)---------17----------15------sl--------|
-------------------------------17----------17---------17/(19)-|
--------------------------------------------------------------|
--------------------------------------------------------------|
--------------------------------------------------------------|


-----------------------------------------------------------------|
----sl-----------------------15------------bu----------h--po--po-|
--19\17---14---------14--------13---12(14)----12(13)(12)(10)-----|
------------------17---------------------------------------------|
-----------------------------------------------------------------|
-----------------------------------------------------------------|


----------------------------------------------------------|
------------------bu--bd--bu-bd---------------------------|
------12---10--9(10)(9)(10)(9)----10-----sl--------bu-----|
-12----------------------------------------12\(2)-----2---|
----------------------------------------------------------|
----------------------------------------------------------|

Main Riff
 ----------------------------------------------
 ----------------------------------------------
 -3-3-3-3---3-3-3---3---3-3-3-3----------------
 -3-3-3-3---3-3-3---3---3-3-3-3----------------
 -1-1-1-1---1-1-1---1---1-1-1-1----------------
 ----------------------------------------------
                                                   x4
 ----------------------------------------------
 ----------------------------------------------
 -7-7-7-7---7-7-7---10-10-10--7---7------------
 -7-7-7-7---7-7-7---10-10-10--7---7------------
 -5-5-5-5---5-5-5---8--8--8---5---5------------
 ----------------------------------------------

 Main Riff
 ---------------------------------------------
 ---------------------------------------------
 -3-3-3-3---3-3-3---3---3-3-3-----------------
 -3-3-3-3---3-3-3---3---3-3-3-----------------
 -1-1-1-1---1-1-1---1---1-1-1-----------------
 ---------------------------------------------
                                                   
 ---------------------------------------------|
 ---------------------------------------------|
 -7-7-7-7---7-7-7---10---10-7-10-7---7--------|
 -7-7-7-7---7-7-7---10---10-7-10-7---7--------|
 -5-5-5-5---5-5-5---8----8--5-8--5---5--------|   
 ---------------------------------------------| 
  For the rest of the song do main riff

 Intro riff at same time for rest of song.





Comments


Popular Guns N Roses tabs & chords
Breakdown Bass Tabs
So Fine Bass Tabs
Back Off Bitch 1 Chords
November Rain Drum Tabs
Blues Tabs
Locomotive 2 Tabs
Madagascar 2 Tabs
Nightrain 3 Tabs
Sweet Child O Mine Tabs
You Ain't The First Tabs


Song lyrics



↑ Back to top | Tablatures and chords are parodies/interpretations of the original songs. You may use it for private study, scholarship, research or language learning purposes only
© 2014 AZChords.com Contact us | Privacy policy | DMCA | Add/correct tabs | Request tabs | Top 50 tabs