>
 >
Bad Obbsession

Bad Obbsession Guitar Tabs

Guns N Roses - Bad Obbsession chords, tabs, tablatures, lyrics

Guitar lessons | Add/correct | Request | Top 50 tabs Artists:  A B C D E F G H I J K L M N O P Q R S T U V W X Y Z 0-9

Bad Obbsession Guitar Tabs – Guns N Roses

CD, Sheet music, Poster

Do you like Bad Obbsession? Share with your friends now
Tabs
BAD OBBSESSION
tune your guitar down a half step

|-------------------------|------------------3-|----------------------|
|-------------------------|---3--------------3-|----------------------|
|---------------12-12-(12)|---0-------2--0-----|---x--3--0--2--0--xx--|
|---------------12-12-(12)|-0-0--3-0--2--0-----|---x--3--0--2--0--xx--|
|-------------------------|--------------------|----------------------|
|-------------------------|--------------------|----------------------|

        p    p                                         dim.   (Gtr. 1 out)
|--------------------3----|-(3)---------------------|-(3)----------------|----------------------|
|--------------------3----|-(3)---------------------|-(3)----------------|----------------------|
|--x--3-----2--0--3-------|-------------------------|--------------------|----------------------|
|--x--3--0--2--0----------|-------------------------|--------------------|----------------------|
|-------(0)---------------|-------------------------|--------------------|----------------------|
|-------------------------|-------------------------|--------------------|----------------------|

*Gtr.2 (w\slide) Slash

     vol. off  < mf
                 ~~~~~~~~~~~~~~~~~~~~~~~~~~~~
|-------------------------|-------------------------|--------------------|----------------------|
|-------------------------|-------------------------|-0----------------0-|(0)-//3\\2--0-/3---0--|
|---------------12--------|-------------------------|-0-/-3--2--0-/-3--0-|(0)-//3\\2--0-/3---0--|
|---------------12--------|-(12)-----------(12)-\\\-|-0-/-3--2--0-/-3--0-|(0)-//3\\2--0-/3---0--|
|-------------------------|-(12)-----------(12)-\\\-|-0-/-3--2--0-/-3--0-|(0)-//3\\2--0-/3---0--|
|-------------------------|-------------------------|--------------------|----------------------|

                               steady gliss.          ~~~~~~~~~~~~~~~~~~
|-------------------------|-------------------------|--------------------|----------------------|
|(0)----------------------|----------------------12-|(12)-------------11/|/12---------------11//|
|(0)-------/3--3\2--0--/2/|/3--(3)///(7)-//------12-|(12)----------------|-----12--12--(12)-11//|
|(0)-------/3--3\2--0--/2/|/3--(3)///(7)-//------12-|(12)----------------|----------------------|
|(0)----------------------|-------------------------|--------------------|----------------------|
|-------------------------|-------------------------|--------------------|----------------------|

   Gtr. 1                      ^    p                      p     p
|-------------3--3--3--3--|-3-----------------------|---------------------3|
|-------------3--3--3--3--|-3--5--------------------|---------------------3|
|-------------------------|----5--3--0-----0--------|(0)--3--0--2--0---0---|
|-------------------------|-------------2--0--------|(0)--3--0--2--0---0---|
|-------------------------|-------------------------|----------------------|
|-------------------------|-------------------------|----------------------|

 let ring ---------------|    sl.                      Gtr. 2
|-------------------------|-------------------------||-------------------------------|
|-12--12------------------|-------------------------||-0-------------------------0---|
|-12------12-------12---12|-10/12--12----12\\\\\\\\\||-0---///3-----2---0--/3----0---|
|-------------12---12---12|-10/12--12----12\\\\\\\\\||-0---///3-----2---0--/3----0---|
|-------------------------|-------------------------||-0---///3-----2---0--/3----0---|
|-------------------------|-------------------------||-------------------------------|

                p                   p     p
|-3--------------------3--|-----------------------3-|--3---3-------------------------|
|-3--------------------3--|-x--x--------------------|--3---3----0----0---------------|
|----0--3-----2--0--0-----|-x--x--3--0--2--0--0-----|-----------0----0---------------|
|----0--3-----2--0--0-----|-x--x--3--0--2--0--0-----|-----------0----0---------------|
|-------------------------|-------------------------|--------------------------------|
|-------------------------|-------------------------|--------------------------------|


|-------------------------|-------------------------|----------------3---------------|
|(0)--//3\\\2---0-/3---0--|(0)----------------------|--------2/3-----3---------------|
|(0)--//3\\\2---0-/3---0--|(0)--/3-------3\2---0/3--|-(3)----------------------------|
|(0)--//3\\\2---0-/3---0--|(0)--/3-------3\2---0----|--------------------------------|
|(0)--//3\\\2---0-/3---0--|(0)----------------------|--------------------------------|
|-------------------------|-------------------------|--------------------------------|

          p                         p      p                    p      p
|-------------------------|----------------------3--|-----------------------------3--|
|-x--x---------------x--x-|-x--x-----------------3--|---x--x-------------------------|
|-x--x--3--0---2--0--x--x-|-x--x--3--0---2--0-------|---x--x--3--0---2--0------------|
|-x--x--3--0---2--0--x--x-|-x--x--3--0---2--0-------|---x--x--3--0---2--0------------|
|-------------------------|-------------------------|--------------------------------|
|-------------------------|-------------------------|--------------------------------|


|--(3)\-------------------|-------------------------|--------------------------------|
|--(3)\-----------------0-|(0)-///3\\\\2--0-//3--0--|--(0)---------------------------|
|-------x-/3---2--0-/3--0-|(0)-///3\\\\2--0-//3--0--|--(0)---//3------3\\2----0-/3---|
|-------x-/3---2--0-/3--0-|(0)-///3\\\\2--0-//3--0--|--(0)---//3------3\\2----0-/3---|
|---------/3---2--0-/3--0-|(0)-///3\\\\2--0-//3--0--|--(0)---//3------3\\2----0-/3---|
|-------------------------|-------------------------|--------------------------------|

|(3)----------------------|-------------------------|---------------------------------|
|-----------------x--x----|-------------------------|---------------------------------|
|-----------------x--x--0-|-------------------------|---------------------------------|
|-----------------x--x--0-|-------------------------|---------------------------------|
|-------------------------|-------------------------|---------------------------------|
|-------------------------|-------------------------|---------------------------------|

                           P.M.     P.M.
|---------------------|-------------------------|--------------------|------------------------|
|---------------------|-------------------------|--------------------|---/2---3\\2---3--3-----|
|(3)-------------(3)\-|--------/3----------3--0-|----/3\\\2--0--2--0-|---/2---3\\2---3--3-----|
|(3)-------------(3)\-|-----0--/3---2---0--3--0-|-0--/3\\\2--0--2--0-|---/2---3\\2---3--3-----|
|(3)-------------(3)\-|-/2--0--/3---2---0-------|-0--/3\\\2--0--2--0-|---/2---3\\2------------|
|---------------------|-------------------------|--------------------|-3----------------------|


|---------------------|-------------------------|--------------------|------------------------|
|(3)\---2/3-----------|-------------------------|--------------------|------------------------|
|(3)\-------3\2--0--0-|(0)--///3\\\\2---0/3-0---|----/3\\\\2--0--2--0|-----/3\\\\2--0--0------|
|(3)\-----------------|-----///3\\\\2---0/3-0---|-0--/3\\\\2--0--2--0|-----/3\\\\2--0--0-/3---|
|---------------------|-----///3\\\\2-----------|-0--/3\\\\2--0--2--0|-0-0--------------------|
|---------------------|-------------------------|--------------------|------------------------|


                           P.M.                    P.M.               P.M.--|
|---------------------|-------------------------|--------------------|------------------------|
|---------------------|--------------------0----|(0)-----------------|------------------------|
|---------------------|-------/3\\\2--0/3--0----|------/3\\2--0--2--0|----------2/3--3\2--0--0|
|-(3)\--1/3-----------|-(3)-0-/3\\\2--0/3--0----|------/3\\2--0--2--0|----------2/3--3\2--0--0|
|---------------------|-----0-/3\\\2------------|----0---------------|---0--0-----------------|
|---------------------|-------------------------|--------------------|------------------------|

         let ring
|---------------------|-------------------------|--------------------|------------------------|
|---------2/3---------|-------------------------|--------------------|------------------------|
|--/3--0------3---(3)\|-------------------------|-----------0--0----0|-(0)--/3--2--0--2---0---|
|--/3--0--------------|-14---------(14)\\\\\\\\-|-10---(10)\0--0----0|-(0)--/3--2--0--2---0---|
|---------------------|-14---------(14)\\\\\\\\-|--------------------|------------------------|
|---------------------|-------------------------|--------------------|------------------------|

|----------------------------|---------------------------|------------------------------------|
|----------------------------|---------------------------|------------------------------0-----|
|-(0)------2//3\\2--0--------|-----14------------(14)\\\\|//8--------------(8)\---5--2--0-----|
|-(0)------2//3\\2--0--------|/14----------------(14)\\\\|//8--------------(8)\---5--2--0-----|
|----------------------------|/14----------------(14)\\\\|//8--------------(8)\-5-------0-----|
|----------------------------|---------------------------|------------------------------------|

|----------------------------------------------|----------------------------------------------|
|--(0)-----------------------------------------|--------------2//////3\\\\\\2///4-------------|
|--(0)-----///3--------2--------0--///3----0---|--(0)---------2//////3\\\\\\2///4-------------|
|--(0)-----///3--------2--------0--///3----0---|--(0)---------2//////3\\\\\\2///4-------------|
|--(0)-----------------------------------------|--------------2//////3\\\\\\2///4-------------|
|----------------------------------------------|----------------------------------------------|

|---------------------------|---------------------|----------------------|--------------------|
|-(5)--------------(5)\--/5-|-(5)---------(5)\--5-|-(5)---------(5)/-----|--------------------|
|-(5)--------------(5)\--/5-|-(5)---------(5)\--5-|-(5)---------(5)/---3-|-(3)\2---0--3\2--0--|
|-(5)--------------(5)\--/5-|-(5)---------(5)\--5-|-(5)---------(5)/-----|-------2-0--3\2--0--|
|-(5)--------------(5)\--/5-|-(5)---------(5)\--5-|-(5)---------(5)/-----|--------------------|
|---------------------------|---------------------|----------------------|--------------------|

|---------------------------|---------------------|----------------------|----------------------|
|--5---------------(5)\--/5-|-(5)---------(5)\--/5|-(5)---------(5)\-----|--------------------4/|
|--5---------------(5)\--/5-|-(5)---------(5)\--/5|-(5)---------(5)\---3-|-(3)\2---2//3\\2-0--4/|
|--5---------------(5)\--/5-|-(5)---------(5)\--/5|-(5)---------(5)\-----|-------2-2//3\\2----4/|
|--5---------------(5)\--/5-|-(5)---------(5)\--/5|-(5)---------(5)\-----|----------------------|
|---------------------------|---------------------|----------------------|----------------------|

let ring                     let ring
|-----5---------------------|------5--------------------|----5--------------------------|
|-/5----4/5--------------4//|/5-------4/5------------4//|/5------------------------2///-|
|-/5---------5\3--0------4//|/5------------5\3---0---4//|/5-----4//5---5\\3---0----2///-|
|-/5---------------------4//|/5----------------------4//|/5-----4//5---5\\3--------2///-|
|---------------------------|---------------------------|-------------------------------|
|---------------------------|---------------------------|-------------------------------|

  let ring                   let ring
|-----3---------------------|------5--------------------|-----5-------------------------|
|-/3--------2///3--------4//|/5-------4/5------------4//|/5------4/5-------------4//----|
|-/3--------2///3--------4//|/5------------5\3--0----4//|/5-----------5\3--0-----4//----|
|-/3---------------3-----4//|/5----------------------4//|/5----------------------4//----|
|------------------3--------|---------------------------|-------------------------------|
|---------------------------|---------------------------|-------------------------------|

let ring                                                         let ring
|----5----------------------|-----7--6//7--7--6///7--7--|--------12-----12--11///12-----|
|-/5-----4/5--5---6///7-----|(7)-----6//7-----6///7-----|--7////-12--12-----11///12-----|
|-/5--------------6///7-----|(7)------------------------|-------------------------------|
|-/5------------------------|---------------------------|----------------------------12\|
|---------------------------|---------------------------|-------------------------------|
|---------------------------|---------------------------|-------------------------------|

 P.M.                         let ring                GUITAR SOLO
|------7--------7--7-|-7//12--12----12-12-12-12-12-||-------12--12--11//12-12-12-|-11//12-12-12-12\\10-----|
|(7)-----6///7--7--7-|-7//12-----12----------------||-11/12-----12--11//12-12-12-|-11//12-12-12-12\\10-----|
|(7)-----6///7-------|-----------------------------||----------------------------|----------------------10-|
|--------------------|-----------------------------||----------------------------|-------------------------|
|--------------------|-----------------------------||----------------------------|-------------------------|
|--------------------|-----------------------------||----------------------------|-------------------------|

           let ring           let ring                  ~~~~~~~ let ring                     let ring      let ring
|-10///12--12----12--10///12--12----12-|-12///15--15---15------15--15----|---------15-------15----15---------15----|
|-10///12-----12-----10///12-----12----|-12///15----------------------15-|-14///15----14/15-15-15-----14//15----15-|
|-10///12------------10///12-----------|---------------------------------|-14///15----14/15-15--------14//15-------|
|--------------------------------------|---------------------------------|-----------------------------------------|
|--------------------------------------|---------------------------------|-----------------------------------------|
|--------------------------------------|---------------------------------|-----------------------------------------|

                                                        rake  rake
|-15---------15----15///17-----17/15---|-------15-15----14----14---------|-----12----------------------------------|
|----14///15-15-15-15///17-----17/15---|-14/15----15-15----14----13--/12-|(12)--------------12------------12-------|
|----14///15-15----15///17-----17/15---|-------------15------------------|--------12----12------12-----12----12----|
|--------------------------------------|---------------------------------|-----------12-12-------------12----------|
|--------------------------------------|---------------------------------|--------------------------12-----------12|
|--------------------------------------|---------------------------------|-----------------------------------------|

|-------17-----------------------------|----17---------------------------|----17----------------------------------|
|----------16//17----------------------|-------16//17--------------------|-------15///17--------------14////15----|
|----------16//17---17\\15---------16//|/17------------17\\15//16----15//|/17------------17\\\15--0---14////15----|
|----------------------------15----15//|/17------------17\\15//16----15//|/17------------17\\\15------14////15----|
|-/17----------------------------------|---------------------------------|----------------------------14////15----|
|--------------------------------------|---------------------------------|----------------------------------------|

|-15-----------------------------|-17------------------------------17---------------------------|
|----14//15--------------12///17-|----15//17----------------16//17----15//17---------------15/17|
|------------15\\14--12--12///17-|------------17\\\15///16--16//17------------17--15-(15)\------|
|------------15\\14--12--12///17-|------------17\\\16-------16//17------------------------------|
|------------------------12///17-|--------------------------------------------------------------|
|--------------------------------|--------------------------------------------------------------|

                            ~~~~~~~~~~~~~    ~~~~~~~~~~~~~~~~      ~~~~~~~~~~~     *    *          *
|-17---------------------------|-----------/19---------------19///22----------22/(25)/(26)-------------------|
|-----15//17-/17--/18--18///19-|------(19)\/19---------------------------------------------------------------|
|------------------------------|-----------/19-----------------------------------------------2///(28)\\\\\\\-|
|------------------------------|-----------------------------------------------------------------------------|
|------------------------------|-----------------------------------------------------------------------------|
|------------------------------|-----------------------------------------------------------------------------|\
                                   *TAB numbers are imaginary fret numbers past the fingerboard.

After the Guitar Solo comes the Harmonica Solo
                                                        %
|------------------------|------------------------|----------------|----------------------------------|
|---------------5---6--7-|-(7)---7----7\\\5---//7-|----------------|-(7)---(7)\/7----/7---------------|
|---------------5---6--7-|-(7)---7----7\\\5---//7-|----------------|-(7)---(7)\/7----/7---------------|
|-(0)-----------5---6--7-|-(7)---7----7\\\5---//7-|----------------|-(7)---(7)\/7----/7---------------|
|-(0)-----------5---6--7-|-(7)---7----7\\\5---//7-|----------------|-(7)---(7)\/7----/7---------------|
|------------------------|------------------------|----------------|----------------------------------|

|----------------------------------------------------------------------------------|
|--7--7\/7---------7\\\5///7---7----7\\2///5//7--7--7--7-----7/2--7---7-7-7-7-7--7-|
|--7--7\/7---------7\\\5///7---7----7\\2///5//7--7--7--7-----7/2--7---7-7-7-7-7--7-|
|--7--7\/7---------7\\\5///7---7----7\\2///5//7--7--7--7-----7/2--7---7-7-7-7-7--7-|
|--7--7\/7---------7\\\5///7---7----7\\2///5//7--7--7--7-----7/2--7---7-7-7-7-7--7-|
|----------------------------------------------------------------------------------|

Pull-offs  = p     Hammer-ons = h   Slide      = sl   Full bend  = ^
Half bend  = 1/2^  Slide up   = /   Slide down = \    Palm Mute  = P.M.

To look where the signs go, look directly down.





Comments


Popular Guns N Roses tabs & chords
Better 3 Bass Tabs
Rocket Queen 2 Bass Tabs
Wild Horses Chords
Better Drum Tabs
Black Leather Tabs
Coma Tabs
My Michelle 4 Tabs
Paradise City 6 Tabs
Sweet Child O Mine Intro Tabs
Word Up 1 Tabs


Song lyrics



↑ Back to top | Tablatures and chords are parodies/interpretations of the original songs. You may use it for private study, scholarship, research or language learning purposes only
© 2014 AZChords.com Contact us | Privacy policy | DMCA | Add/correct tabs | Request tabs | Top 50 tabs