» » »

Guns N Roses, Bad Apples Bass tabs (ver.3)

Artists:  A B C D E F G H I J K L M N O P Q R S T U V W X Y Z # 

Bad Apples Bass tabs (ver.3)

Guns N Roses Tabs
Rating:
5/5 (1 vote)
Bad Apples lessons Tabs too difficult? Try these video lessons and learn fast
                  Guns N' Roses
  Bad Apples

  Tune down half step!



INTRO

 |--------------|--------------|--------------|--------------|--------------|
 |--------------|--------------|--------------|--------------|--------------|
 |--------------|--7-7--------7|(7)--/4--2--5-|--------/4-2-5|-------/4-2-5-|
 |--------------|-0----0----0--|-------------0|-(0)-0--------|-0-0----------|
                                      sl.             sl.             sl.

 |--------------|--------------|--------------|--------------|--------------|
 |--------------|--------------|--------------|--------------|--------------|
 |--------/4-2-5|------/4-2-5--|-------/4-2-5-|-------5-6-7--|--------------|
 |-(0)-0--------|-0-0---------0|-(0)-0--------|-0-0----------|-----------12\|
         sl.          sl.             sl.                                sl.

 1st Verse

 |------------------------|------------------------|------------------------|
 |------------------------|------------------------|------------------------|
 |----------3-------------|------3-----------------|--------3---------------|
 |---5----------2--0--3--5|-5-0------2--0---3----4-|-5--0------2--0---3----5|

 |------------------------|------------------------|------------------------|
 |------------------------|------------------------|------------------------|
 |----------3-------------|------3-----------------|--------3---------------|
 |-0--5---------2--0--3--5|-5--0------2--0---3---4-|-0--5------2--0---3----5|

 |------------------------|------------------------|------------------------|
 |------------------------|------------------------|-----------------2------|
 |----------3-------------|------3-----------------|---------5-----4--------|
 |-5--0---------2--0--3--5|-5--0------2--0---3---2-|-0--0--------------3--0-|

 |------------------------|------------------------|------------------------|
 |--2---------------------|------------------2-----|--2---------------------|
 |---------5--0---4----(4)|--------5------4--------|---------5--0----4------|
 |---3---0----------------|--0--0--------------3---|---3---0----------------|

                                                   |------------------------|
                                                   |--5h2---2---0-----------|
        (miss)                  (miss)             |--------------2----2----|
                                                   |-----------------0------|

   CHORUS
 |------------------|-----------------|------------------|------------------|
 |-0--0-2-0-2-3-4---|-----------------|------------------|---------------0--|
 |----------------0-|(0)-0-2-0-2-3-4--|----------------2-|--2---------------|
 |------------------|---------------0-|(0)-0--2-0-2-3-4--|-4-4-3-2--0-------|

 |------------------|-----------------|------------------|------------------|
 |-(0)--0-2-0-2-3-4-|-----------------|------------------|---------------0--|
 |-----------------0|(0)-0-2-0-2-3-4--|----------------2-|--2---------------|
 |------------------|---------------0-|(0)-0--2-0-2-3-4--|-4-4-3-2--0-------|

 |------------------|-----------------|------------------|------------------|
 |-(0)-0-2-0-2-3-4--|-----------------|------------------|------------------|
 |----------------0-|(0)-0-2-0-2-3-4-0|-2-2-2-2-2-2-2-2--|--2---------------|
 |------------------|-----------------|------------------|------------------|


 VERSE 2 (repeat verse 1)

 |------------------------|------------------------|------------------------|
 |------------------------|------------------------|---2--------2-----------|
 |--2--5--4--3--2-5-4----3|-2---1--0-----0---------|---------------4--5-----|
 |------------------------|-----------3-----3--2--1|0-----3--0------------0-|

 |------------------------|------------------------|------------------------|
 |------------------------|--2-------2-------------|------------------------|
 |------------------------|-------------4--5-------|------------------------|
 |---4----5---6---7---0---|-----3--0------------0--|---4---5---6---7----0---|

 |------------------|------------------|------------------|-----------------|
 |-2-----2----------|------------------|-2-----2----------|-----------------|
 |----------4-5-----|------------------|----------4-5-----|-----------------|
 |---3-0--------0---|-4---5----6--7--0-|---3-0--------0---|-4---5----6--7--3|

 |------------------|------------------|------------------|-----------------|
 |------------------|------------------|------------------|-----------------|
 |------------------|-------------1-2--|------------------|-----------------|
 |-3-3-3-1-2-3-1-0-3|-(3)-1-3-1-3-----3|-3-1-3-1-3-1-0-3--|-3-1-3-1--3-2-1-0|

 |------------------|------------------|------------------|-----------------|
 |-2-----2----------|------------------|-2-----2----------|-----------------|
 |----------4-5-----|------------------|----------4-5-----|-----------------|
 |---3-0--------0---|-4---5----6--7--0-|---3-0--------0---|-4---5----6--7--3|

 |------------------------|------------------------|------------------------|
 |------------------------|------------------------|------------------------|
 |------------------------|------------1-2---------|------------------------|
 |-3--3--3--1-2-3---1--0-3|-3-1-3-1-3-------3------|-3--1--3--1--3--1--0--3-|

 |------------------------|------------------------|------------------------|
 |--0--3--2--1-1--0-3--0--|------------------------|------------------------|
 |------------------------|------------------------|------------------------|
 |-----------------------5|-5--5-5---0-0--5--3--0-5|-5--3--5--3--5--3--5--0-|

 |------------------------|------------------------|------------------------|
 |--------------7--8------|-9----(9)\--------------|-2-3-4------------------|
 |-2-2-2-2-2-0------------|------------------------|-------3-4-5------------|
 |------------------------|------------------------|--------------0--1-2---0|
                                  sl.

 |---7-------6------|------------------|-----------------|------------------|
 |------------------|------------------|-----------------|------------------|
 |-5---5-4-4---4--3-|-2-2-2-2-2-2--2--2|-2-5--5-2-5-0-3-2|-0----------------|
 |------------------|------------------|-----------------|------------------|

 |------------------------|------------------------|------------------------|
 |------------------------|------------------------|------------------------|
 |------------------------|------------------------|------------------------|
 |------------------------|------------------------|------------------------|


 |------------------------|------------------------|------------------------|
 |--4-----2---------------|------------------------|------------------------|
 |-----------4---2-------2|------------------------|--7---------------------|
 |------------------8h4---|--0---------------------|--0---------------------|


 Throughout the song there is a few bass fills im not to sure where they are in
 the song but I do know the TAB or them!!!


   bass fill 1
 |----------------------|
 |----2-----------------|
 |-----------5-0------5-|
 |------3-0--------3----|

   bass fill 2
 |----------------------|----------------------|
 |----------------------|--------------5-4-----|
 |--------3-------------|-----3----------------|
 |---5-0------2-0-3-5---|-0-5----2-0-----------|

   bass fill 3
 |-----6-----7----------|
 |----------------------|
 |---4---4-5---5--0-----|
 |----------------------|
            
Submit corrections

comments powered by Disqus
↑ Back to top | Guns N Roses Bass for Bad Apples. Lyrics for acoustic guitar and electric guitar. Tablatures and chords are parodies/interpretations of the original songs. You may use it for private study, scholarship, research or language learning purposes only