>
 >
Back Off Bitch

Back Off Bitch Bass Tabs

Guns N Roses - Back Off Bitch chords, tabs, tablatures, lyrics

Guitar lessons | Add/correct | Request | Top 50 tabs Artists:  A B C D E F G H I J K L M N O P Q R S T U V W X Y Z 0-9

Back Off Bitch Bass Tabs – Guns N Roses

CD, Sheet music, Poster

Do you like Back Off Bitch? Share with your friends now
Bass TabsChordsChords v2TabsTabs v2Tabs v3Ukulele

Tuning:Half-Step Down

INTRO:
F#--------------------------------------------------|
C#--------------------------------------------------|
G#-------------------5-----------4--------4s5-------|
D#-------0------------------------------------------|

F#--------------------------------------------------------------|
C#--------------------------------------------------------------|
G#-------------------5---3-4-5H--4H-------4s5-5-5-555555555-7s1-|
D#-------0------------------------------------------------------|

PRE VERSE:
F#-----------------------------------------------------------------|
C#------2------------------------------2-----------------0--0-0h2--|
G#----------5p4----------------------------5p4-----5p4-------------|
D#--0-0---0-----0-0-3p2-0-3--3-5---0-0---0-----0-0-----0-----------|

F#-----------------------------------------------------------------|
C#------2-----------------0--0-0h2-----2---------------------------|
G#----------5p4-----5p4--------------------5p4-----4--5H-----------|
D#--0-0---0-----0-0-----0----------0-0---0-----0-0-----------------|

VERSE:
F#------------------------------------------------|
C#------------------------------------------------|
G#-------------------------------------5555-44-5--|
D#--0--0-00000-3--3-333-1-3-5--5-55555------------|

F#------------------------------------------------|
C#------------------------------------------------|
G#-------------------------------------5555-44-5--|
D#--0--0-00002h3--3-333-1-3-5--5-55555------------|

F#------------------------------------------------|
C#------------------------------------------------|
G#-------------------------------------555555555--|
D#--0000000000-333333333333-5555555555------------|

F#------------------------------------------------|
C#------------------------------------------------|
G#-------------------------------------555555555--|
D#--0000000000-333333333333-5555555555------------|

F#------------------------------------------------|
C#-----------------5----5------7-7-7--------------|
G#-------------------------------------5555-44-5--|
D#--0000000002h3-3---333--3-5-5-5-5-55------------|

CHORUS:
F#--------------------------------------------------------------|
C#--------------------------------------------------------------|
G#------7-5-5-4h5-----7-5-5-4h5-----7---5---7---5---7--5-5-4h5--|
D#--0-0-----------0-0-----------0-0---0---0---0---0-------------|

F#--------------------------------------------------------------|
C#--------------------------------------------------------------|
G#------7-5-5-4h5-----7-5-5-4h5-----7---5---7---5---7--5-5-4-0--|
D#--0-0-----------0-0-----------0-0---0---0---0---0-------------|

F#-----------------------------------------------------------|
C#---------------------------------2------2------2------2----|
G#--------------------------------------------------------0--|
D#--3--3-3-0-3-4-5--5-5-0-3b--0-00---0-00---0-00---0-00------|

F#-----------------------------------------------------------|
C#---------------------------------2------2------2------0h2--|
G#-----------------------------------------------------------|
D#--3--3-3-0-3-4-5--5-5-0-3b--0-00---0-00---0-00---0-00------|

PRE VERSE 2:
F#------------------------------------------------|
C#------------------------------------------------|
G#-------------------------------------5555-44-5--|
D#--0--0-00000-3--3-333-1-3-5--5-55555------------|

F#------------------------------------------------|
C#------------------------------------------------|
G#-------------------------------------5555-44-5--|
D#--0--0-00002h3--3-333-1-3-5--5-55555------------|

VERSE #2:
F#------------------------------------------------|
C#------------------------------------------------|
G#-------------------------------------555555555--|
D#--0000000000-333333333333-5555555555------------|

F#------------------------------------------------|
C#-----------------5----5------7-7-7--------------|
G#-------------------------------------5555-44-5--|
D#--0000000002h3-3---333--3-5-5-5-5-55------------|

CHORUS #2

PRE SOLO:
F#------------------------------------------------|
C#------------------------------------------------|
G#-------------------------------------5555-44-5--|
D#--0--0-00000-3--3-333-1-3-5--5-55555------------|

F#------------------------------------------------|
C#------------------------------------------------|
G#-------------------------------------5555-44-5--|
D#--0--0-00002h3--3-333-1-3-5--5-55555------------|

SOLO:
F#-----------------------------------------------------|
C#-----------------------------------------------------|
G#---------------------------------------------------1-|
D#--2--2--2-2--5--5--5-5--2--2-2-0-2-4-5-5-5-5-5-4h5---|

F#-------------------------------------------------|
C#-------------------------------------------------|
G#--2--2--2-2--5--5--5-5--2--2--2---5-5-5-5-4------|
D#--------------------------------------------5p4--|

F#-----------------------------------------------------|
C#-----------------------------------------------------|
G#-------------------------------------------------0h1-|
D#--2--2--2-2--5--5--5-5--2--2-2-0-2-4-5-5-5-5-4h5-----|

F#---------------------------------------------------------------|
C#---------------------------------------------------------------|
G#--2--2--2-2--5--5--5-5--2--2--2---5--6--7H-------7-77-7-7------|
D#----------------------------------------0H-------0-00-0-0------|

F#--------------------------------------------------|
C#-----------------------------------2-0---0--------|
G#---------------------------------------2---2-0----|
D#--0-00-0-0--------0-00-0-0---------------------3--|

VERSE #3:
F#------------------------------------------------|
C#------------------------------------------------|
G#-------------------------------------555555555--|
D#--0000000000-333333333333-5555555555------------|

F#------------------------------------------------|
C#-----------------5-5-5------7-7-7---------------|
G#-------------------------------------5555-44-5--|
D#--0000000002h3-3--3-3-3--5-5-5-5-55-------------|

CHORUS #3:
F#--------------------------------------------------------------|
C#--------------------------------------------------------------|
G#------7-5-5-4h5-----7-5-5-4h5-----7---5---7---5---7--5-5-4h5--|
D#--0-0-----------0-0-----------0-0---0---0---0---0-------------| x 3

F#--------------------------------------------------------------|
C#--------------------------------------------------------------|
G#------7-5-5-4h5-----7-5-5-4h5-----7---5---7---5---7p5---7H----|
D#--0-0-----------0-0-----------0-0---0---0---0---0-----7-------|

F#-----------------------------------------------------------|
C#---------------------------------2------2------2------2----|
G#--------------------------------------------------------0--|
D#--3--3-3-0-3-4-5--5-5-0-3b--0-00---0-00---0-00---0-00------|

F#-----------------------------------------------------------|
C#---------------------------------2------2------2-----------|
G#---------------------------------------------------5-6-7H--|
D#--3--3-3-0-3-4-5--5-5-0-3b--0-00---0-00---0-00---0---------|

F#-----------------------------------------------------------|
C#---------------------------------2------2------2---0-1-2-0-|
G#-----------------------------------------------------------|
D#--3--3-3-0-3-4-5--5-5-0-3b--0-00---0-00---0-00---0---------|

F#--------------------------------------------------------------------------|
C#--------------------------------------------------------------------------|
G#--------------------------------------------------------------------------|
D#--3--3-3-0-3-4-5--5-5-0-3b--0------0------0------0------0H----------------|

F#-----------------|
C#-----------------|
G#-----------------|
D#------0----------|

Please Rate





Comments


Popular Guns N Roses tabs & chords
Breakdown Bass Tabs
Used To Love Her Bass Tabs
Dont Cry 1 Chords
Paradise City 1 Chords
There Was A Time 2 Chords
Back Off Bitch 1 Tabs
Chinese Democracy 9 Tabs
Rocket Queen 2 Tabs
Think About You Tabs
You Could Be Mine 1 Tabs


Song lyrics



↑ Back to top | Tablatures and chords are parodies/interpretations of the original songs. You may use it for private study, scholarship, research or language learning purposes only
© 2014 AZChords.com Contact us | Privacy policy | DMCA | Add/correct tabs | Request tabs | Top 50 tabs