>
 >
Ain't It Fun 1

Ain't It Fun 1 Guitar Tabs

Guns N Roses - Ain't It Fun 1 chords, tabs, tablatures, lyrics

Guitar lessons | Add/correct | Request | Top 50 tabs Artists:  A B C D E F G H I J K L M N O P Q R S T U V W X Y Z 0-9

Ain't It Fun 1 Guitar Tabs – Guns N Roses

CD, Sheet music, Poster

Do you like Ain't It Fun 1? Share with your friends now
Bass TabsTabsTabs v2Tabs v3
Alright so i basically browsed through some tabs for this and they were all flawed, so i
made a new one.

This tab is for the fanatics who wanna play the song note for note.

IMPORTANT: the original song is played half step down on both guitars. However the lead
part isnt really any easier like this so i just tabbed it for normal tuning. The rhythm 
guitar tab
is half step down, though.

Guitar cover by me so you see what this tab sounds like:



Ok here we go:

Lead: (Normal tuning)

e|-------------------------------------------------------------------------|
B|-------------------------------------------------------------------------|
G|----------------------------1--3~~~~-------------------------------------|
D|---------------------1-3-------------------------------------------------|
A|-1~~-----1-----3-4-------------------------------------------------------|
E|-------------------------------------------------------------------------|


e|-------------------------------------------------------------------------|
B|------------------------------2/4-2--4/6-/9---11p9----11-----------------|
G|-------------------------1/3--------------------------10-----------------|
D|-------------------------------------------------------------------------|
A|-------------------------------------------------------------------------|
E|-------------------------------------------------------------------------|


e|----------9h11b~r11-9h11p9b~--9b-----------------------------------------|
B|----11------------------------------11---9b------------------------------|
G|-------------------------------------------------------------------------|
D|-------------------------------------------------------------------------|
A|-------------------------------------------------------------------------|
E|-------------------------------------------------------------------------|


e|-------------------------------------------------------------------------|
B|-9b~r-6-----------------9-11-9-------------------------------------------|
G|--------8b~r-6-8-6-8/10--------8b~r-6-8-6-8b~r6---6-5--------------------|
D|------------------------------------------------8-----6-8----------------|
A|-------------------------------------------------------------------------|
E|-------------------------------------------------------------------------|


e|-------------------------------------------------------------------------|
B|------------------------------------6-6----------------------------------|
G|----------6h8-6-8b~--8b~r-6h8-6-8-6-----8p6-8--p6------------------------|
D|---6/8---------------------------------------------8~~~~~~~~-------------|
A|-------------------------------------------------------------------------|
E|-------------------------------------------------------------------------|


e|------9------------------------------------------------------------------|
B|--------9------------------------9h11---9h11-----------------------------|
G|-6h8b(hold)r-6h8-6-6--6-8-6-8/10-----------------------------------------|
D|------------------------------------------------11/10---8~~~~~~~~--------|
A|-------------------------------------------------------------------------|
E|-------------------------------------------------------------------------|


e|-------------------------------------------------------------------------|
B|----------9-9------------------------------------------------------------|
G|-----6h8b~~~~~r-6----8-6--8-6-8br-6-8---6---5----------------------------|
D|-6/8----------------------------------8---8---6-8~~~~~~~~~~~~~~~~~~------|
A|-------------------------------------------------------------------------|
E|-------------------------------------------------------------------------|


e|-------------------------------------------------------------------------|
B|-------------------------------------------------------------------------|
G|-------------------------------------------------------------------------|
D|-----------------------------------------------------8pm-8pm-8pm--8~~\---|
A|-------------------------------------------------------------------------|
E|-------------------------------------------------------------------------|
Ain't it fun when you're always on the run...

e|-------------------------------------------------------------------------|
B|-------------------------------------------------------------------------|
G|------------------------------------------------PM----------6~~~~~-------|
D|-------------------------------------------------6-8-6h8-8---------------|
A|-------------------------------------------------------------------------|
E|-------------------------------------------------------------------------|
Ain't it fun when your friends dispise what you've become...

e|-------------------------------------------------------------------------|
B|-------------------------------------------------------------------------|
G|---------------------------------------------------5---------------------|
D|------------------------------------------------------6--8~~~~-----------|
A|-------------------------------------------------------------------------|
E|-------------------------------------------------------------------------|
Ain't it fun when you get so high, well that you, you just cant come...

e|-------------------------------------------------------------------------|
B|-------------------------------------------------------------------------|
G|-------------------------------------------------------------------------|
D|---------------------------------------------------------8-6h8-6h8-6h8-6-|
A|-------------------------------------------------------------------------|
E|-------------------------------------------------------------------------|
Ain't it fun when you know that your gonna die young, its such FUN!

e|-------------------------------------------------------------------------|
B|-------------------------------------------------------------------------|
G|-------------------------------------------------------------------------|
D|--4-4-4-4-4-4---6-6-6-6-6-6-6---8--6-6--8--6--8--6--8--6-6--8--6--8--6---|
A|--4-4-4-4-4-4---6-6-6-6-6-6-6---8--6-6--8--6--8--6--8--6-6--8--6--8--6---|
E|--2-2-2-2-2-2---4-4-4-4-4-4-4---6--4-4--6--4--6--4--6--4-4--6--4--6--4---|
     COME ON       Such Fun                 Such Fun

e|-------------------------------------------------------------------------|
B|-------------------------------------------------------------------------|
G|-------------------------------------------------------------------------|
D|--4-4-4-4-4-4---6-6-6-6-6-6-6---8--6-6--8--6--8--6--8--6-6--8--6--8--6---|
A|--4-4-4-4-4-4---6-6-6-6-6-6-6---8--6-6--8--6--8--6--8--6-6--8--6--8--6---|
E|--2-2-2-2-2-2---4-4-4-4-4-4-4---6--4-4--6--4--6--4--6--4-4--6--4--6--4---|
     Such Fun       Such Fun                 Such Fun

e|-------------------------------------------------------------------------|
B|-------------------------------------------------------------------------|
G|-------------------------------------------------------------------------|
D|--4-4-4-4-4-4---6-6-6-6-6-6-6--------------------------------------------|
A|--4-4-4-4-4-4---6-6-6-6-6-6-6--------------------------------------------|
E|--2-2-2-2-2-2---4-4-4-4-4-4-4--------------------------------------------|
     Such Fun       Such Fun                 SUCH


e|-------------------------------------------------------------------------|
B|------------4b-r------2h4-2--4--2----------------------------------------|
G|---3~~~~~~-------------------------3--3/20-------------------------------|
D|-------------------------------------------------------------------------|
A|-------------------------------------------------------------------------|
E|-------------------------------------------------------------------------|


e|-------------------------------------------------------------------------|
B|-------------------------------------------------------------------------|
G|----------------------------------------------------6h8-6-8/10-----------|
D|------------------------------------------------8---------------8~~~\----|
A|-------------------------------------------------------------------------|
E|-------------------------------------------------------------------------|
Ain't it fun when you're taking care of number one...

e|-------------------------------------------------------------------------|
B|--------------------------------------------------------------------9-11\|
G|------------------------------------------------------6-8-/-10---10------|
D|----------------------------------------------------8----------8---------|
A|-------------------------------------------------------------------------|
E|-------------------------------------------------------------------------|
Well ain't it fun when you, feel like you just, gotta get a gun...

e|-------------------------------------------------------------------------|
B|------------------------------------------------------14p9h11~~~~~-------|
G|-------------------------------------------------------------------------|
D|-------------------------------------------------------------------------|
A|-------------------------------------------------------------------------|
E|-------------------------------------------------------------------------|
Ain't it fun when you just cant seem to find your tongue...

e|---------------------------------------------------------11br--p9--------|
B|-------------------------------------------------------------------9--11-|
G|-------------------------------------------------------------------------|
D|-------------------------------------------------------------------------|
A|-------------------------------------------------------------------------|
E|-------------------------------------------------------------------------|
Cuz' you stuck it too deep into something that really stung... SUCH FUN

e|-------------------------------------------------------------------------|
B|-------------------------------------PMPM--PMPM--------------------------|
G|-----PMPM--PMPM------PMPM--PMPM----6-6-6-6-6-6-6-----PMPM--PMPM----------|
D|---4-4-4-4-4-4-4---6-6-6-6-6-6-6---6-6-6-6-6-6-6---8-8-8-8-8-8-8---------|
A|---4-4-4-4-4-4-4---6-6-6-6-6-6-6---4-4-4-4-4-4-4---8-8-8-8-8-8-8---------|
E|---2-2-2-2-2-2-2---4-4-4-4-4-4-4-------------------6-6-6-6-6-6-6---------|
Well, so you come up to me and spit right in my face! I didn't even feel it,
                       It was such a disgrace!

e|-------------------------------------------------------------------------|
B|-------------------------------------PMPM--PMPM--------------------------|
G|-----PMPM--PMPM------PMPM--PMPM----6-6-6-6-6-6-6-----PMPM--PMPM----------|
D|---4-4-4-4-4-4-4---6-6-6-6-6-6-6---6-6-6-6-6-6-6---8-8-8-8-8-8-8---------|
A|---4-4-4-4-4-4-4---6-6-6-6-6-6-6---4-4-4-4-4-4-4---8-8-8-8-8-8-8---------|
E|---2-2-2-2-2-2-2---4-4-4-4-4-4-4-------------------6-6-6-6-6-6-6---------|
  I punched my fist right through the glass, I didn't even feel it,
                      It happened so fast!

e|-------------------------------------------------------------------------|
B|-------------------------------------------------------------------------|
G|-------------------------------------------------------------------------|
D|--4-4-4-4-4-4---6-6-6-6-6-6-6---8--6-6--8--6--8--6--8--6-6--8--6--8--6---|
A|--4-4-4-4-4-4---6-6-6-6-6-6-6---8--6-6--8--6--8--6--8--6-6--8--6--8--6---|
E|--2-2-2-2-2-2---4-4-4-4-4-4-4---6--4-4--6--4--6--4--6--4-4--6--4--6--4---|
     Such Fun       Such Fun                 Such Fun

e|-------------------------------------------------------------------------|
B|-------------------------------------------------------------------------|
G|-------------------------------------------------------------------------|
D|--4-4-4-4-4-4---6-6-6-6-6-6-6---8--6-6--8--6--8--6--8--6-6--8--6--8--6---|
A|--4-4-4-4-4-4---6-6-6-6-6-6-6---8--6-6--8--6--8--6--8--6-6--8--6--8--6---|
E|--2-2-2-2-2-2---4-4-4-4-4-4-4---6--4-4--6--4--6--4--6--4-4--6--4--6--4---|
     Such Fun       Such Fun                 Such Fun


e|-------------------------------------------------------------------------|
B|-------------------------------------------------------------------------|
G|-------------------------------------------------------------------------|
D|--4-4-4-4-4-4---6-6-6-6-6-6-6---8--6-6--8--6--8--6--8--6-6--8--6--8--6---|
A|--4-4-4-4-4-4---6-6-6-6-6-6-6---8--6-6--8--6--8--6--8--6-6--8--6--8--6---|
E|--2-2-2-2-2-2---4-4-4-4-4-4-4---6--4-4--6--4--6--4--6--4-4--6--4--6--4---|
     Such Fun       Such Fun                 Such Fun

e|-------------------------------------------------------------------------|
B|-------------------------------------------------------------------------|
G|-------------------------------------------------------------------------|
D|--4-4-4-4-4-4---6-6-6-6-6-6-6--------------------------------------------|
A|--4-4-4-4-4-4---6-6-6-6-6-6-6--------------------------------------------|
E|--2-2-2-2-2-2---4-4-4-4-4-4-4--------------------------------------------|
     Such Fun       Such Fun                 SUCH


e|-------------------------------------------------------------------16----|
B|-16b18-b-b-b-b-b-b-b-b-b-b-b-r16p14h16-p14br----------------14--18-------|
G|------------------------------------------------15-15----15--------------|
D|-------------------------------------------------------------------------|
A|-------------------------------------------------------------------------|
E|-------------------------------------------------------------------------|


e|---18-16-----------------------------------------------------------------|
B|---------16b-r-14b-----13--11-------9------------------------------------|
G|-------------------------10------10---8----------------------------------|
D|-------------------------------------------11-13-11-----11----11---------|
A|-----------------------------------------------------------13----13~~13~~|
E|-------------------------------------------------------------------------|


e|-------------------------------------------------------------------------|
B|----------------------------------------11---------------------------11~~|
G|-------------------------------------------13--10-10---------------------|
D|-----------------------------------------------------13-13p10-13-10------|
A|-------------------------------------------------------------------------|
E|-------------------------------------------------------------------------|
Aint it fun when you tell her, she's just a cunt...

e|-----------------------------------------------11---9--------------------|
B|----------------------------------------9--11----------11--9---11b-11b--r|
G|------------------------------------10-----------------------------------|
D|-------------------------------------------------------------------------|
A|-------------------------------------------------------------------------|
E|-------------------------------------------------------------------------|
but Aint it fun when she splits and leaves you on your bum...

e|-------------------------------------------------------------------------|
B|-------------------------------------------9-----------------------------|
G|----------------------------------------------10-8-10-8-6-8p6---6--------|
D|----------------------------------------11--------------------8---8------|
A|-------------------------------------------------------------------------|
E|-------------------------------------------------------------------------|
Aint it fun when youv'e broken up every band that youv'e ever begun...

e|-------------------------------------------------------------------------|
B|-------------------------------------------------------------------------|
G|-------------------------------------------------------------------------|
D|-----8-6-----------------------------------------------------------------|
A|---------8----8-6----------------6-6-8-6---6-----------------------------|
E|------------------9----9-6-*-6-9---------9---9-6-------------------------|
Aint it fun when you know that your'e gonna die young, its such FUN!








Rhythm: (half step drop)

e|-------------------------------------------------------------------------|
B|-------------------------------------------------------------------------|
G|-----4-------4-------7---------------0-4------0-4-----------4-------4----|
D|---4-------4-------7---------7----------------------------4---4---4---4--|
A|-2-------2-----4-5---------7-------------------------0--2-------2--------|
E|-------------------------5--------3--------3-----------------------------|
     X 4


e|-------------------------------------------------------------------------|
B|-------------------------------------------------------------------------|
G|-----0-4-------0-4---------4------4---------0-4-----0-4----------4-----4-|
D|-------------------------4------4------------------------------4-----4---|
A|---------------------0-2------2---------0------------------0-2-----2-----|
E|---3---------3----------------------------3-------3----------------------|


e|-------------------------------------------------------------------------|
B|-------------------------------------------------------------------------|
G|-----7-------------------4------0-4-0------7----------------4-------4----|
D|---7---7-------7-------4---4-------------7---7-----7------4---4---4---4--|
A|-5-----------7---7---2-----------------5---------7---7--2-------2--------|
E|-----------5------------------3----------------5-------------------------|


e|-------------------------------------------------------------------------|
B|-------------------------------------------------------------------------|
G|-----4-------4-------7-----2-4-2-----0-4------0-4----------4--------4----|
D|---4-------4-------7-------------------------------------4---4----4---4--|
A|-2-------2-----4-5-------0--------------------------0--2--------2--------|
E|----------------------------------3--------3-----------------------------|
    x2

e|-------------------------------------------------------------------------|
B|-------------------------------------------------------------------------|
G|-----0-4-------0-4---------4------4---------0-4-----0-4----------4-----4-|
D|-------------------------4------4------------------------------4-----4---|
A|---------------------0-2------2---------0------------------0-2-----2-----|
E|---3---------3----------------------------3-------3----------------------|



e|-------------------------------------------------------------------------|
B|-------------------------------------------------------------------------|
G|-----7-------------------4------0-4-0------7-----------------------------|
D|---7---7-------7-------4---4-------------7---7-----7---------------------|
A|-5-----------7---7---2-----------------5---------7---7-------------------|
E|-----------5------------------3----------------5-------------------------|


(Chorus)

e|-------------------------------------------------------------------------|
B|-------------------------------------------------------------------------|
G|-----4-------4-------7---------------0-4------0-4-----------4-------4----|
D|---4-------4-------7---------7----------------------------4---4---4---4--|
A|-2-------2-----4-5---------7-------------------------0--2-------2--------|
E|-------------------------5--------3--------3-----------------------------|


e|-------------------------------------------------------------------------|
B|-------------------------------------------------------------------------|
G|-----4-------4-------7-----2-4-2-----0-4------0-4----------4--------4----|
D|---4-------4-------7-------------------------------------4---4----4---4--|
A|-2-------2-----4-5-------0--------------------------0--2--------2--------|
E|----------------------------------3--------3-----------------------------|
    x2

e|-------------------------------------------------------------------------|
B|-------------------------------------------------------------------------|
G|-----0-4-------0-4---------4------4---------0-4-----0-4----------4-----4-|
D|-------------------------4------4------------------------------4-----4---|
A|---------------------0-2------2---------0------------------0-2-----2-----|
E|---3---------3----------------------------3-------3----------------------|

e|-------------------------------------------------------------------------|
B|-------------------------------------------------------------------------|
G|-----7-------------------4------0-4-0------7-----------------------------|
D|---7---7-------7-------4---4-------------7---7-----7---------------------|
A|-5-----------7---7---2-----------------5---------7---7-------------------|
E|-----------5------------------3----------------5-------------------------|


(Palm muting part, Chorus)


e|-------------------------------------------------------------------------|
B|-------------------------------------------------------------------------|
G|-----4-------4-------7---------------0-4------0-4-----------4-------4----|
D|---4-------4-------7---------7----------------------------4---4---4---4--|
A|-2-------2-----4-5---------7-------------------------0--2-------2--------|
E|-------------------------5--------3--------3-----------------------------|
   X2

e|-------------------------------------------------------------------------|
B|-------------------------------------------------------------------------|
G|-----4-------4-------7-----2-4-2-----0-4------0-4----------4--------4----|
D|---4-------4-------7-------------------------------------4---4----4---4--|
A|-2-------2-----4-5-------0--------------------------0--2--------2--------|
E|----------------------------------3--------3-----------------------------|
   x2

e|-------------------------------------------------------------------------|
B|-------------------------------------------------------------------------|
G|-----0-4-------0-4---------4------4---------0-4-----0-4----------4-----4-|
D|-------------------------4------4------------------------------4-----4---|
A|---------------------0-2------2---------0------------------0-2-----2-----|
E|---3---------3----------------------------3-------3----------------------|



e|-------------------------------------------------------------------------|
B|-------------------------------------------------------------------------|
G|-----7-------------------4------0-4-0------7-----------------------------|
D|---7---7-------7-------4---4-------------7---7-----7---------------------|
A|-5-----------7---7---2-----------------5---------7---7-------------------|
E|-----------5------------------3----------------5-------------------------|





Comments


Popular Guns N Roses tabs & chords
Estranged Bass Tabs
Outta Get Me Bass Tabs
Crash Diet Chords
So Fine Chords
There Was A Time 2 Chords
Coma Tabs
Double Talkin Live Tabs
I Was Only Joking Tabs
If The World Intro Tabs
November Rain Solos Tabs


Song lyrics



↑ Back to top | Tablatures and chords are parodies/interpretations of the original songs. You may use it for private study, scholarship, research or language learning purposes only
© 2014 AZChords.com Contact us | Privacy policy | DMCA | Add/correct tabs | Request tabs | Top 50 tabs