>
 >
Ain't It Fun

Ain't It Fun Guitar Tabs

Guns N Roses - Ain't It Fun chords, tabs, tablatures, lyrics

Guitar lessons | Add/correct | Request | Top 50 tabs Artists:  A B C D E F G H I J K L M N O P Q R S T U V W X Y Z 0-9

Ain't It Fun Guitar Tabs – Guns N Roses

CD, Sheet music, Poster

Do you like Ain't It Fun? Share with your friends now
Bass TabsTabsTabs v2Tabs v3
----------------------------------------------------------------------------
                             AIN'T IT FUN - Guns N' Roses
----------------------------------------------------------------------------

Tuning: standard

This is a pretty cool song, probably the only GnR song i REALLY like. I did
this tab because out of how many versions are up there already, i feel this is the most 
so please vote and comment it.

Guitar I:  Gilby Clarke (Rhythm) [corrected by SnookM]
Guitar II: Saul Hudson a.k.a Slash (lead)


Intro:
Guitar I:
e|-------------------------------------------------------------------------|
B|-------------------------------------------------------------------------|
G|-----3-------3-------6-----------------3--------3----------3--------3----|
D|---3-(3)---3-------6--(6)----6-------4--(4)---4---------3---(3)---3--(3)-|
A|-1-------1-----3-4---------6--(6)---------------------1---------1--------|
E|-------------------------4--------2--------2-------4---------------------|

Guitar II:
e|-------------------------------------------------------------------------|
B|-------------------------------------------------------------------------|
G|----------------------------1--3~~~~*feedback*---------------------------|
D|---------------------1h3-------------------------------------------------|
A|-1~~-----1-----3-4-------------------------------------------------------|
E|-------------------------------------------------------------------------|


Guitar I:
e|-------------------------------------------------------------------------|
B|-------------------------------------------------------------------------|
G|-----3-------3-------6-----------------3--------3----------3--------3----|
D|---3-(3)---3-------6--(6)----6-------4--(4)---4---------3---(3)---3--(3)-|
A|-1-------1-----3-4---------6--(6)---------------------1---------1--------|
E|-------------------------4--------2--------2-------4---------------------|

Guitar II:
e|------------------------------------------4---6p4--6~~~------------------|
B|------------------------------2h4p2--4/6-----------6~~~------------------|
G|-------------------------1/3---------------------------------------------|
D|-------------------------------------------------------------------------|
A|-------------------------------------------------------------------------|
E|-------------------------------------------------------------------------|

Guitar I:
e|-------------------------------------------------------------------------|
B|-------------------------------------------------------------------------|
G|-----3-------3-------6-----------------3--------3----------3--------3----|
D|---3-(3)---3-------6--(6)----6-------4--(4)---4---------3---(3)---3--(3)-|
A|-1-------1-----3-4---------6--(6)---------------------1---------1--------|
E|-------------------------4--------2--------2-------4---------------------|

Guitar II:
e|-----6----9h11b~r11-9h11-9b~--9b-----------------------------------------|
B|------------------------------------11-9-9b------------------------------|
G|-------------------------------------------------------------------------|
D|-------------------------------------------------------------------------|
A|-------------------------------------------------------------------------|
E|-------------------------------------------------------------------------|

Guitar I:
e|-------------------------------------------------------------------------|
B|-------------------------------------------------------------------------|
G|-----3-------3-------6-----------------3--------3----------3--------3----|
D|---3-(3)---3-------6--(6)----6-------4--(4)---4---------3---(3)---3--(3)-|
A|-1-------1-----3-4---------6--(6)---------------------1---------1--------|
E|-------------------------4--------2--------2-------4---------------------|

Guitar II:
e|-------------------------------------------------------------------------|
B|-9b~r-6-----------------9-11-9-------------------------------------------|
G|--------8b~r-6-8-6-8/10--------8b~rp6-8-6-8b~r6---6-5--------------------|
D|------------------------------------------------8-----6-8----------------|
A|-------------------------------------------------------------------------|
E|-------------------------------------------------------------------------|


Guitar I:
e|-------------------------------------------------------------------------|
B|-------------------------------------------------------------------------|
G|--------3--------3------------------------------------3---------3--------|
D|------4--(4)---4--(4)---------8--------8------------4--(4)----4--(4)-----|
A|----------------------------8--(8)---8-----------------------------------|
E|---2---------2--------4---6--------6-------4-----2---------2-------------|

Guitar II:
e|-------------------------------------------------------------------------|
B|------------------------------------6-6----------------------------------|
G|----------6h8-6-8b~--8b~r-6h8-6-8-6-----8p6-8p6--------------------------|
D|---6/8---------------------------------------------8~~~~~~~~-------------|
A|-------------------------------------------------------------------------|
E|-------------------------------------------------------------------------|


Guitar I:
e|-------------------------------------------------------------------------|
B|-------------------------------------------------------------------------|
G|-----6----------------------------3--------6-----------------------------|
D|---6--(6)------6---------8------4--(4)---6--(6)----6--------8-------8----|
A|-4-----------6--(6)----8--(8)----------4---------6--(6)---8--(8)--8--(8)-|
E|-----------4---------6--------2----------------4--------6-------6--------|

Guitar II:
e|------9------------------------------------------------------------------|
B|--------9------------------------9------9h11-----------------------------|
G|-6h8b(hold)r-6h8-6-6--6-8-6-8/10-----10--------6-------------------------|
D|-------------------------------------------------8~~~~~~~~---------------|
A|-------------------------------------------------------------------------|
E|-------------------------------------------------------------------------|

Guitar I:
e|-------------------------------------------------------------------------|
B|-------------------------------------------------------------------------|
G|-----6----------------------------3--------6-----------------------------|
D|---6--(6)------6---------8------4--(4)---6--(6)----6--------8-------8----|
A|-4-----------6--(6)----8--(8)----------4---------6--(6)---8--(8)--8--(8)-|
E|-----------4---------6--------2----------------4--------6-------6--------|

Guitar II:
e|-------------------------------------------------------------------------|
B|----------9-9------------------------------------------------------------|
G|-----6h8b~~~~~rp6--8-8-6--8-6-8brp6-8---6---5----------------------------|
D|-6/8----------------------------------8---8---6-8~~~~~~~~~~~~~~~~~~------|
A|-------------------------------------------------------------------------|
E|-------------------------------------------------------------------------|

Verse 1:
Guitar I:
e|-------------------------------------------------------------------------|
B|-------------------------------------------------------------------------|
G|-----3-------3-------6-----------------3--------3----------3--------3----|
D|---3-(3)---3-------6--(6)----6-------4--(4)---4---------3---(3)---3--(3)-|
A|-1-------1-----3-4---------6--(6)---------------------1---------1--------|
E|-------------------------4--------2--------2-------4---------------------|
  Aint' It Fun when your, always on the run?

Guitar II:
e|-------------------------------------------------------------------------|
B|-------------------------------------------------------------------------|
G|-------------------------------------------------------------------------|
D|----------------------------------------------------|8---8---8|---8~~~\--|
A|----------------------------------------------------|---------|----------|
E|----------------------------------------------------|---------|----------|
                                                      |PALM MUTE|

Guitar I:
e|-------------------------------------------------------------------------|
B|-------------------------------------------------------------------------|
G|-----3-------3-------6-----------------3--------3----------3--------3----|
D|---3-(3)---3-------6--(6)----6-------4--(4)---4---------3---(3)---3--(3)-|
A|-1-------1-----3-4---------6--(6)---------------------1---------1--------|
E|-------------------------4--------2--------2-------4---------------------|
   Ain't It Fun when your friends despise what you've become

Guitar II:
e|-------------------------------------------------------------------------|
B|-------------------------------------------------------------------------|
G|------------------------------------------------------------6~~~~~-------|
D|---------------------------------------------------8-6h8-8---------------|
A|-------------------------------------------------------------------------|
E|-------------------------------------------------------------------------|


Guitar I:
e|-------------------------------------------------------------------------|
B|-------------------------------------------------------------------------|
G|--------5--------5------------------------------------3---------3--------|
D|------4--(4)---4--(4)---------8--------8------------4--(4)----4--(4)-----|
A|----------------------------8--(8)---8-----------------------------------|
E|---2---------2--------4---6--------6-------4-----2---------2-------------|
  Ain't it fun when you get so high.. That you just can't come

Guitar II:
e|-------------------------------------------------------------------------|
B|-------------------------------------------------------------------------|
G|---------------------------------------------------5---------------------|
D|------------------------------------------------------6--8~~~~-----------|
A|-------------------------------------------------------------------------|
E|-------------------------------------------------------------------------|


Guitar I:
e|-------------------------------------------------------------------------|
B|-------------------------------------------------------------------------|
G|-----6----------------------------3--------6-----------------------------|
D|---6--(6)------6---------8------4--(4)---6--(6)----6-----8-8-8-8-8-8-8-8-|
A|-4-----------6--(6)----8--(8)----------4---------6--(6)--8-8-8-8-8-8-8-8-|
E|-----------4---------6--------2----------------4---------6-6-6-6-6-6-6-6-|
   Ain't it fun when you know that you're gonna die young    Its Such Fun

Guitar II:
e|-------------------------------------------------------------------------|
B|-------------------------------------------------------------------------|
G|-------------------------------------------------------------------------|
D|---------------------------------------------------------8p6h8p6h8p6h8p6-|
A|-------------------------------------------------------------------------|
E|-------------------------------------------------------------------------|


Chorus: Both Guitars I assume
e|-------------------------------------------------------------------------|
B|-------------------------------------------------------------------------|
G|-------------------------------------------------------------------------|
D|--4-4-4-4-4-4---6-6-6-6-6-6-6---8--6-6--8--6--8--6--8--6-6--8--6--8--6---|
A|--4-4-4-4-4-4---6-6-6-6-6-6-6---8--6-6--8--6--8--6--8--6-6--8--6--8--6---|
E|--2-2-2-2-2-2---4-4-4-4-4-4-4---6--4-4--6--4--6--4--6--4-4--6--4--6--4---|
     Such Fun       Such Fun                 Such Fun

e|-------------------------------------------------------------------------|
B|-------------------------------------------------------------------------|
G|-------------------------------------------------------------------------|
D|--4-4-4-4-4-4---6-6-6-6-6-6-6---8--6-6--8--6--8--6--8--6-6--8--6--8--6---|
A|--4-4-4-4-4-4---6-6-6-6-6-6-6---8--6-6--8--6--8--6--8--6-6--8--6--8--6---|
E|--2-2-2-2-2-2---4-4-4-4-4-4-4---6--4-4--6--4--6--4--6--4-4--6--4--6--4---|
     Such Fun       Such Fun                 Such Fun

e|-------------------------------------------------------------------------|
B|-------------------------------------------------------------------------|
G|-------------------------------------------------------------------------|
D|--4-4-4-4-4-4---6-6-6-6-6-6-6--------------------------------------------|
A|--4-4-4-4-4-4---6-6-6-6-6-6-6--------------------------------------------|
E|--2-2-2-2-2-2---4-4-4-4-4-4-4--------------------------------------------|
     Such Fun       Such Fun                 SUCH

Bridge:
Guitar I:
e|-------------------------------------------------------------------------|
B|-------------------------------------------------------------------------|
G|-----3-------3-------6-----------------3--------3----------3--------3----|
D|---3-(3)---3-------6--(6)----6-------4--(4)---4---------3---(3)---3--(3)-|
A|-1-------1-----3-4---------6--(6)---------------------1---------1--------|
E|-------------------------4--------2--------2-------4---------------------|

Guitar II:
e|-------------------------------------------------------------------------|
B|------------4b-r--4p2-2h4-2--4--2----------------------------------------|
G|---3~~~~~~--3b-r-------------------3--3----------------------------------|
D|-------------------------------------------------------------------------|
A|-------------------------------------------------------------------------|
E|-------------------------------------------------------------------------|


Verse:
Guitar I:
e|-------------------------------------------------------------------------|
B|-------------------------------------------------------------------------|
G|-----3-------3-------6-----------------3--------3----------3--------3----|
D|---3-(3)---3-------6--(6)----6-------4--(4)---4---------3---(3)---3--(3)-|
A|-1-------1-----3-4---------6--(6)---------------------1---------1--------|
E|-------------------------4--------2--------2-------4---------------------|
   Ain't it fun when you taking care of number one

Guitar II:
e|-------------------------------------------------------------------------|
B|-------------------------------------------------------------------------|
G|----------------------------------------------------6h8-6-8/10-----------|
D|------------------------------------------------8---------------8~~~~~---|
A|-------------------------------------------------------------------------|
E|-------------------------------------------------------------------------|


Guitar I:
e|-------------------------------------------------------------------------|
B|-------------------------------------------------------------------------|
G|-----3-------3-------6-----------------3--------3----------3--------3----|
D|---3-(3)---3-------6--(6)----6-------4--(4)---4---------3---(3)---3--(3)-|
A|-1-------1-----3-4---------6--(6)---------------------1---------1--------|
E|-------------------------4--------2--------2-------4---------------------|
  Ain't it fun when you feel like you just gotta get a gun

Guitar II:
e|-------------------------------------------------------------------------|
B|--------------------------------------------------------------------9-11-|
G|------------------------------------------------------6-8-/-10---10------|
D|----------------------------------------------------8----------8---------|
A|-------------------------------------------------------------------------|
E|-------------------------------------------------------------------------|


Guitar I:
e|-------------------------------------------------------------------------|
B|-------------------------------------------------------------------------|
G|--------3--------3------------------------------------3---------3--------|
D|------4--(4)---4--(4)---------8--------8------------4--(4)----4--(4)-----|
A|----------------------------8--(8)---8-----------------------------------|
E|---2---------2--------4---6--------6-------4-----2---------2-------------|
   Ain't it fun when you just can't seem to find your tongue

Guitar II:
e|-------------------------------------------------------------------------|
B|------------------------------------------------------14p9h11~~~~~-------|
G|-------------------------------------------------------------------------|
D|-------------------------------------------------------------------------|
A|-------------------------------------------------------------------------|
E|-------------------------------------------------------------------------|


Guitar I:
e|-------------------------------------------------------------------------|
B|-------------------------------------------------------------------------|
G|-----6----------------------------3--------6-----------------------------|
D|---6--(6)------6---------8------4--(4)---6--(6)----6-----8-8-8-8-8-8-8-8-|
A|-4-----------6--(6)----8--(8)----------4---------6--(6)--8-8-8-8-8-8-8-8-|
E|-----------4---------6--------2----------------4---------6-6-6-6-6-6-6-6-|
  Cause you stuck it too deep into something that really stung Its Such Fun

Guitar II:
e|-----------------------------------------------------------12b-r-----18--|
B|-----------------------------------------------------------------11------|
G|-------------------------------------------------------------------------|
D|-------------------------------------------------------------------------|
A|-------------------------------------------------------------------------|
E|-------------------------------------------------------------------------|


Bridge: Both Guitars again
e|-------------------------------------------------------------------------|
B|-------------------------------------------------------------------------|
G|-----------------------------------6-x-x-6-x-x-6-x-----------------------|
D|---4-x-x-4-x-x-4-x-6-x-x-6-x-x-6-x-6-x-x-6-x-x-6-x-8-x-x-8-x-x-8-x-------|
A|---4-x-x-4-x-x-4-x-6-x-x-6-x-x-6-x-4-x-x-4-x-x-4-x-8-x-x-8-x-x-8-x-------|
E|---2-x-x-2-x-x-2-x-4-x-x-4-x-x-4-x-----------------6-x-x-6-x-x-6-x-------|
  Well, so you come up to me and spit right in my face I didn't even feel it
                       It was such a disgrace

e|-------------------------------------------------------------------------|
B|-------------------------------------------------------------------------|
G|-----------------------------------6-x-x-6-x-x-6-x-----------------------|
D|---4-x-x-4-x-x-4-x-6-x-x-6-x-x-6-x-6-x-x-6-x-x-6-x-8-x-x-8-x-x-8-x-------|
A|---4-x-x-4-x-x-4-x-6-x-x-6-x-x-6-x-4-x-x-4-x-x-4-x-8-x-x-8-x-x-8-x-------|
E|---2-x-x-2-x-x-2-x-4-x-x-4-x-x-4-x-----------------6-x-x-6-x-x-6-x-------|
  I punched my fist right through the glass I didn't even feel it
                      It happened so fast

e|-------------------------------------------------------------------------|
B|-------------------------------------------------------------------------|
G|-------------------------------------------------------------------------|
D|--4-4-4-4-4-4---6-6-6-6-6-6-6---8--6-6--8--6--8--6--8--6-6--8--6--8--6---|
A|--4-4-4-4-4-4---6-6-6-6-6-6-6---8--6-6--8--6--8--6--8--6-6--8--6--8--6---|
E|--2-2-2-2-2-2---4-4-4-4-4-4-4---6--4-4--6--4--6--4--6--4-4--6--4--6--4---|
     Such Fun       Such Fun                 Such Fun

e|-------------------------------------------------------------------------|
B|-------------------------------------------------------------------------|
G|-------------------------------------------------------------------------|
D|--4-4-4-4-4-4---6-6-6-6-6-6-6---8--6-6--8--6--8--6--8--6-6--8--6--8--6---|
A|--4-4-4-4-4-4---6-6-6-6-6-6-6---8--6-6--8--6--8--6--8--6-6--8--6--8--6---|
E|--2-2-2-2-2-2---4-4-4-4-4-4-4---6--4-4--6--4--6--4--6--4-4--6--4--6--4---|
     Such Fun       Such Fun                 Such Fun


e|-------------------------------------------------------------------------|
B|-------------------------------------------------------------------------|
G|-------------------------------------------------------------------------|
D|--4-4-4-4-4-4---6-6-6-6-6-6-6---8--6-6--8--6--8--6--8--6-6--8--6--8--6---|
A|--4-4-4-4-4-4---6-6-6-6-6-6-6---8--6-6--8--6--8--6--8--6-6--8--6--8--6---|
E|--2-2-2-2-2-2---4-4-4-4-4-4-4---6--4-4--6--4--6--4--6--4-4--6--4--6--4---|
     Such Fun       Such Fun                 Such Fun

e|-------------------------------------------------------------------------|
B|-------------------------------------------------------------------------|
G|-------------------------------------------------------------------------|
D|--4-4-4-4-4-4---6-6-6-6-6-6-6--------------------------------------------|
A|--4-4-4-4-4-4---6-6-6-6-6-6-6--------------------------------------------|
E|--2-2-2-2-2-2---4-4-4-4-4-4-4--------------------------------------------|
     Such Fun       Such Fun                 SUCH

Bridge:
Guitar I:
e|-------------------------------------------------------------------------|
B|-------------------------------------------------------------------------|
G|-----3-------3-------6-----------------3--------3----------3--------3----|
D|---3-(3)---3-------6--(6)----6-------4--(4)---4---------3---(3)---3--(3)-|
A|-1-------1-----3-4---------6--(6)---------------------1---------1--------|
E|-------------------------4--------2--------2-------4---------------------|

Guitar II:
e|-11b13-b-b-b-b-b-b-b-b-b-b-b-r11p9h11-9b-r--------------9-11--16---------|
B|--------------------------------------------11-11----11------------------|
G|-------------------------------------------------------------------------|
D|-------------------------------------------------------------------------|
A|-------------------------------------------------------------------------|
E|-------------------------------------------------------------------------|


Guitar I:
e|-------------------------------------------------------------------------|
B|-------------------------------------------------------------------------|
G|-----3-------3-------6-----------------3--------3----------3--------3----|
D|---3-(3)---3-------6--(6)----6-------4--(4)---4---------3---(3)---3--(3)-|
A|-1-------1-----3-4---------6--(6)---------------------1---------1--------|
E|-------------------------4--------2--------2-------4---------------------|

Guitar II:
e|---13-16-11b-r-----------------------------------------------------------|
B|---------------14b-----13--11-------9------------------------------------|
G|-------------------------10------10---8----------------------------------|
D|-------------------------------------------11-13-11-----8brbr~~~~~--8~~~-|
A|-------------------------------------------------------------------------|
E|-------------------------------------------------------------------------|


Verse:
Guitar I:
e|-------------------------------------------------------------------------|
B|-------------------------------------------------------------------------|
G|-----3-------3-------6-----------------3--------3----------3--------3----|
D|---3-(3)---3-------6--(6)----6-------4--(4)---4---------3---(3)---3--(3)-|
A|-1-------1-----3-4---------6--(6)---------------------1---------1--------|
E|-------------------------4--------2--------2-------4---------------------|
  Ain't it fun when you tell her she's just a...

Guitar II:
e|-------------------------------------------------------------------------|
B|----------------------------------------------11---------------------/11-|
G|-------------------------------------------------13--10-10-8-8p6-8-6-----|
D|-------------------------------------------------------------------------|
A|-------------------------------------------------------------------------|
E|-------------------------------------------------------------------------|


Guitar I:
e|-------------------------------------------------------------------------|
B|-------------------------------------------------------------------------|
G|-----3-------3-------6-----------------3--------3----------3--------3----|
D|---3-(3)---3-------6--(6)----6-------4--(4)---4---------3---(3)---3--(3)-|
A|-1-------1-----3-4---------6--(6)---------------------1---------1--------|
E|-------------------------4--------2--------2-------4---------------------|
Ain't it fun when you she splits you and leaves you on the run

Guitar II:
e|-------------------------------------------------6---11---9--------------|
B|-------------------------------------------6--9--------------11--9---11b-|
G|-------------------------------------------------------------------------|
D|-------------------------------------------------------------------------|
A|-------------------------------------------------------------------------|
E|-------------------------------------------------------------------------|

Guitar I:
e|-------------------------------------------------------------------------|
B|-------------------------------------------------------------------------|
G|--------3--------3------------------------------------3---------3--------|
D|------4--(4)---4--(4)---------8--------8------------4--(4)----4--(4)-----|
A|----------------------------8--(8)---8-----------------------------------|
E|---2---------2--------4---6--------6-------4-----2---------2-------------|
  Well, Ain't it fun when you broken up every band that you ever begun

Guitar II:
e|-------------------------------------------------------------------------|
B|-------------------------------------------9----6---6--------------------|
G|------------------------------------------6-------8---8-6-8p6---6--------|
D|--------------------------------------------------------------8---8------|
A|-------------------------------------------------------------------------|
E|-------------------------------------------------------------------------|


Guitar I:
e|-------------------------------------------------------------------------|
B|-------------------------------------------------------------------------|
G|-----6----------------------------3--------6-----------------------------|
D|---6--(6)------6---------8------4--(4)---6--(6)----6-----8-8-8-8-8-8-8-8-|
A|-4-----------6--(6)----8--(8)----------4---------6--(6)--8-8-8-8-8-8-8-8-|
E|-----------4---------6--------2----------------4---------6-6-6-6-6-6-6-6-|
  Ain't it fun when you know that you're gonna die young      SUCH FUN

Guitar II: In-audible, or atleast too in-audible for my lazy ass


Chorus: Both Guitars (In the last chorus chuck in a couple of fret 11 vibratos on the
and after those vibratos a couple of fret 10 vibratos on the G-String)
e|-------------------------------------------------------------------------|
B|-------------------------------------------------------------------------|
G|-------------------------------------------------------------------------|
D|--4-4-4-4-4-4---6-6-6-6-6-6-6---8--6-6--8--6--8--6--8--6-6--8--6--8--6---|
A|--4-4-4-4-4-4---6-6-6-6-6-6-6---8--6-6--8--6--8--6--8--6-6--8--6--8--6---|
E|--2-2-2-2-2-2---4-4-4-4-4-4-4---6--4-4--6--4--6--4--6--4-4--6--4--6--4---|
     Such Fun       Such Fun                 Such Fun

e|-------------------------------------------------------------------------|
B|-------------------------------------------------------------------------|
G|-------------------------------------------------------------------------|
D|--4-4-4-4-4-4---6-6-6-6-6-6-6---8--6-6--8--6--8--6--8--6-6--8--6--8--6---|
A|--4-4-4-4-4-4---6-6-6-6-6-6-6---8--6-6--8--6--8--6--8--6-6--8--6--8--6---|
E|--2-2-2-2-2-2---4-4-4-4-4-4-4---6--4-4--6--4--6--4--6--4-4--6--4--6--4---|
     Such Fun       Such Fun                 Such Fun

e|-------------------------------------------------------------------------|
B|-------------------------------------------------------------------------|
G|-------------------------------------------------------------------------|
D|--4-4-4-4-4-4---6-6-6-6-6-6-6---8--6-6--8--6--8--6--8--6-6--8--6--8--6---|
A|--4-4-4-4-4-4---6-6-6-6-6-6-6---8--6-6--8--6--8--6--8--6-6--8--6--8--6---|
E|--2-2-2-2-2-2---4-4-4-4-4-4-4---6--4-4--6--4--6--4--6--4-4--6--4--6--4---|
     Such Fun       Such Fun                 Such Fun

e|-------------------------------------------------------------------------|
B|-------------------------------------------------------------------------|
G|-------------------------------------------------------------------------|
D|--4-4-4-4-4-4---6-6-6-6-6-6-6---8--6-6--8--6--8--6--8--6-6--8--6--8--6---|
A|--4-4-4-4-4-4---6-6-6-6-6-6-6---8--6-6--8--6--8--6--8--6-6--8--6--8--6---|
E|--2-2-2-2-2-2---4-4-4-4-4-4-4---6--4-4--6--4--6--4--6--4-4--6--4--6--4---|
     Such Fun       Such Fun                 Such Fun

e|-------------------------------------------------------------------------|
B|-------------------------------------------------------------------------|
G|-------------------------------------------------------------------------|
D|--4-4-4-4-4-4---6-6-6-6-6-6-6---8--6-6--8--6--8--6--8--6-6--8--6--8--6---|
A|--4-4-4-4-4-4---6-6-6-6-6-6-6---8--6-6--8--6--8--6--8--6-6--8--6--8--6---|
E|--2-2-2-2-2-2---4-4-4-4-4-4-4---6--4-4--6--4--6--4--6--4-4--6--4--6--4---|
     Such Fun

e|-------------------------------------------------------------------------|
B|-------------------------------------------------------------------------|
G|-------------------------------------------------------------------------|
D|--4-4-4-4-4-4---6-6-6-6-6-6-6---8--6-6--8--6--8--6--8--6-6--8--6--8--6---|
A|--4-4-4-4-4-4---6-6-6-6-6-6-6---8--6-6--8--6--8--6--8--6-6--8--6--8--6---|
E|--2-2-2-2-2-2---4-4-4-4-4-4-4---6--4-4--6--4--6--4--6--4-4--6--4--6--4---|

Outro:
e|--------------11--9------------------------------------------------------|
B|-------9--11---------11--9-----------------------------------------------|
G|----10----------------------10---8--6--8------------------------11~~~~---|
D|-------------------------------------------8--6--8--6-----------10~~~~---|
A|-------------------------------------------------------8--6-----8~~~~~---|
E|-------------------------------------------------------------------------|

I hope you're more pleased with this than i am, Please also vote and comment
so i know
going on and if people are actually using/finding this helpful peace. Vote &
Comment

| b  bend
| /  slide up
| \  slide down
| h  hammer-on
| p  pull-off
| ~  vibrato
| +  harmonic
| x  Mute note
============================================================================





Comments


Popular Guns N Roses tabs & chords
Better 3 Bass Tabs
Dont Damn Me Bass Tabs
Down On The Farm Bass Tabs
One In A Million 1 Chords
Buick Makane 2 Tabs
Down On The Farm 1 Tabs
Out Ta Get Me Tabs
Shotgun Blues 1 Tabs
Since I Don't Have You 1 Tabs
Talkin Double Jive Tabs


Song lyrics



↑ Back to top | Tablatures and chords are parodies/interpretations of the original songs. You may use it for private study, scholarship, research or language learning purposes only
© 2014 AZChords.com Contact us | Privacy policy | DMCA | Add/correct tabs | Request tabs | Top 50 tabs