» » »

Guns N Roses, Ain It Fun Bass tabs (ver.1)

Artists:  A B C D E F G H I J K L M N O P Q R S T U V W X Y Z # 

Ain It Fun Bass tabs (ver.1)

Guns N Roses Tabs
Rating:
0/5 (0 votes)
Hard to play? Try these video lessons and learn fast.
                GUNS N' ROSES - Ain't It Fun from "THe Spaghetti Incident?"

G|-----------------------------------------------------------------------|
D|-----------------------------------------------------------------------|
A|-------1-----1---3---4------------1----1---3---4---------------1--1----|
E|-1-----------------------4---2---1-----------------4---2--2-4------4-2-|

G|------------------------------------------------|
D|------------------------------------------------|
A|-1---3---4------1-------4-------111111111111111-|
E|-------------4------2-------4-------------------|

G|--------------------------------------------------|
D|--------------------------------------------------|
A|-----------------1-1-1-1-1-1-1------------------1-|
E|-4222222244444444-4-4-4-4-4-4-4-2222222244444444--|

G|------------------------------------------------------------|
D|------------------------------------------------------------|
A|----------------4444-443-1111-11-----------------1-1-1-1-1--|
E|-2222-22-4444-44----------------42222222244444444-4-4-4-4-4-|
            

comments powered by Disqus
↑ Back to top | Guns N Roses Bass for Ain It Fun. Lyrics for acoustic guitar and electric guitar. Tablatures and chords are parodies/interpretations of the original songs. You may use it for private study, scholarship, research or language learning purposes only