>
 >
14 Years

14 Years Guitar Tabs

Guns N Roses - 14 Years chords, tabs, tablatures, lyrics

Guitar lessons | Add/correct | Request | Top 50 tabs Artists:  A B C D E F G H I J K L M N O P Q R S T U V W X Y Z 0-9

14 Years Guitar Tabs – Guns N Roses

CD, Sheet music, Poster

Do you like 14 Years? Share with your friends now
Bass TabsBass Tabs v2ChordsChords v2Drum TabsTabsUkulele
14 Years                                       
Guns n Roses
Use your illusion II


 Gtr 1.
|-------------------------|-------------------------|-------------------------|
|-------------------------|-------------------------|-------------------------|
|-------------------------|-------------------------|-------------------------|
|--------7--------7-------|--------5--------5-------|--------3--------3-------|
|-------------------------|-------------------------|-------------------------|
|--5--5-----0--5-------0--|--3--3-----0--3-------0--|--1--1-----0--1-------1--|

|-----------------------|-------------------------|-------------------------|
|-----------------------|-------------------------|-------------------------|
|-----------------------|-------------------------|-------------------------|
|------------2----------|--------7--------7-------|--------5--------5-------|
|-----------------------|-------------------------|-------------------------|
|--0--0--3h4------------|--5--5-----0--5-------0--|--3--3-----0--3-------0--|

|-------------------------|---------------------------|-------------------------|
|-------------------------|---------------------------|-------------------------|
|-------------------------|---------------------------|-------------------------|
|--------3--------3-------|------------2-----------2--|--------7--------7-------|
|-------------------------|-----------------2---------|-------------------------|
|--1--1-----0--1-------1--|--0--0--3h4---------3h4----|--5--5-----0--5-------0--|

|-------------------------|-------------------------|---------------------------|
|-------------------------|-------------------------|---------------------------|
|-------------------------|-------------------------|---------------------------|
|--------5--------5-------|--------3--------3-------|------------2-----------2--|
|-------------------------|-------------------------|-----------------2---------|
|--3--3-----0--3-------0--|--1--1-----0--1-------1--|--0--0--3h4---------3h4----|

|-------------------------|-------------------------|-------------------------|
|-------------------------|-------------------------|-------------------------|
|-------------------------|-------------------------|-------------------------|
|--------7--------7-------|--------5--------5-------|--------3--------3-------|
|-------------------------|-------------------------|-------------------------|
|--5--5-----0--5-------0--|--3--3-----0--3-------0--|--1--1-----0--1-------1--|

                               A5                       C
|---------------------------|------------------------|------------------------|
|---------------------------|------------------------|--5----5--5----5--5--5--|
|---------------------------|--2----2----2--2--2--2--|--5----5--5----5--5--5--|
|------------2-----------2--|--2----2----2--2--2--2--|--5----5--5----5--5--5--|
|-----------------2---------|--0----0----0--0--0--0--|--3----3--3----3--3--3--|
|--0--0--3h4---------3h4----|------------------------|------------------------|

   D                                                    A5
|-------------------------|--------------------------|------------------------|
|--7----7--7--7--7--7--7--|--7--7--7--7--7--7--7--7--|------------------------|
|--7----7--7--7--7--7--7--|--7--7--7--7--7--7--7--7--|--2----2----2--2--2--2--|
|--7----7--7--7--7--7--7--|--7--7--7--7--7--7--7--7--|--2----2----2--2--2--2--|
|--5----5--5--5--5--5--5--|--5--5--5--5--5--5--5--5--|--0----0----0--0--0--0--|
|-------------------------|--------------------------|------------------------|

   C                        D
|------------------------|-------------------------|--------------------------|
|--5----5--5----5--5--5--|--7----7--7--7--7--7--7--|--7--7--7--7--7--7--7--7--|
|--5----5--5----5--5--5--|--7----7--7--7--7--7--7--|--7--7--7--7--7--7--7--7--|
|--5----5--5----5--5--5--|--7----7--7--7--7--7--7--|--7--7--7--7--7--7--7--7--|
|--3----3--3----3--3--3--|--5----5--5--5--5--5--5--|--5--5--5--5--5--5--5--5--|
|------------------------|-------------------------|--------------------------|

   A5                       C                        D
|------------------------|------------------------|-------------------------|
|------------------------|--5----5--5----5--5--5--|--7----7--7--7--7--7--7--|
|--2----2----2--2--2--2--|--5----5--5----5--5--5--|--7----7--7--7--7--7--7--|
|--2----2----2--2--2--2--|--5----5--5----5--5--5--|--7----7--7--7--7--7--7--|
|--0----0----0--0--0--0--|--3----3--3----3--3--3--|--5----5--5--5--5--5--5--|
|------------------------|------------------------|-------------------------|

                              A5                       C
|--------------------------|------------------------|------------------------|
|--7--7--7--7--7--7--7--7--|------------------------|--5----5--5----5--5--5--|
|--7--7--7--7--7--7--7--7--|--2----2----2--2--2--2--|--5----5--5----5--5--5--|
|--7--7--7--7--7--7--7--7--|--2----2----2--2--2--2--|--5----5--5----5--5--5--|
|--5--5--5--5--5--5--5--5--|--0----0----0--0--0--0--|--3----3--3----3--3--3--|
|--------------------------|------------------------|------------------------|

   D                                                    A5
|-------------------------|--------------------------|-------------------|
|--7----7--7--7--7--7--7--|--7--7--7--7--7--7--7--7--|-------------------|
|--7----7--7--7--7--7--7--|--7--7--7--7--7--7--7--7--|--2----------------|
|--7----7--7--7--7--7--7--|--7--7--7--7--7--7--7--7--|--2----------------|
|--5----5--5--5--5--5--5--|--5--5--5--5--5--5--5--5--|--0----------------|
|-------------------------|--------------------------|-------------------|

   G5                  D/A                                    A5
|--3----------------|--2----------------|------------------|-------------------|
|--3----------------|--3----------------|------------------|-------------------|
|--0----------------|--2----------------|------------------|--2----------------|
|--0----------------|--0----------------|------------------|--2----------------|
|--x----------------|--0----------------|------------------|--0----------------|
|--3----------------|-------------------|------------------|-------------------|

   G5                  D/A
|--3----------------|--2----------------|------------------|-------------------------|
|--3----------------|--3----------------|------------------|-------------------------|
|--0----------------|--2----------------|------------------|-------------------------|
|--0----------------|--0----------------|------------------|--------7--------7-------|
|--x----------------|--0----------------|------------------|-------------------------|
|--3----------------|-------------------|------------------|--5--5-----0--5-------0--|
                                                                                
|-------------------------|-------------------------|---------------------------|
|-------------------------|-------------------------|---------------------------|
|-------------------------|-------------------------|---------------------------|
|--------5--------5-------|--------3--------3-------|------------2-----------2--|
|-------------------------|-------------------------|-----------------2---------|
|--3--3-----0--3-------0--|--1--1-----0--1-------1--|--0--0--3h4---------3h4----|

|-------------------------|-------------------------|-------------------------|
|-------------------------|-------------------------|-------------------------|
|-------------------------|-------------------------|-------------------------|
|--------7--------7-------|--------5--------5-------|--------3--------3-------|
|-------------------------|-------------------------|-------------------------|
|--5--5-----0--5-------0--|--3--3-----0--3-------0--|--1--1-----0--1-------1--|

|---------------------------|-------------------------|-------------------------|
|---------------------------|-------------------------|-------------------------|
|---------------------------|-------------------------|-------------------------|
|------------2-----------2--|--------7--------7-------|--------5--------5-------|
|-----------------2---------|-------------------------|-------------------------|
|--0--0--3h4---------3h4----|--5--5-----0--5-------0--|--3--3-----0--3-------0--|

|-------------------------|-----------------------|-------------------------|
|-------------------------|-----------------------|-------------------------|
|-------------------------|-----------------------|-------------------------|
|--------3--------3-------|------------2----------|--------7--------7-------|
|-------------------------|-----------------------|-------------------------|
|--1--1-----0--1-------1--|--0--0--3h4------------|--5--5-----0--5-------0--|

|-------------------------|-------------------------|---------------------------|
|-------------------------|-------------------------|---------------------------|
|-------------------------|-------------------------|---------------------------|
|--------5--------5-------|--------3--------3-------|------------2-----------2--|
|-------------------------|-------------------------|-----------------2---------|
|--3--3-----0--3-------0--|--1--1-----0--1-------1--|--0--0--3h4---------3h4----|

|-------------------------|-------------------------|-------------------------|
|-------------------------|-------------------------|-------------------------|
|-------------------------|-------------------------|-------------------------|
|--------7--------7-------|--------5--------5-------|--------3--------3-------|
|-------------------------|-------------------------|-------------------------|
|--5--5-----0--5-------0--|--3--3-----0--3-------0--|--1--1-----0--1-------1--|

|---------------------------|-------------------------|-------------------------|
|---------------------------|-------------------------|-------------------------|
|---------------------------|-------------------------|-------------------------|
|------------2-----------2--|--------7--------7-------|--------5--------5-------|
|-----------------2---------|-------------------------|-------------------------|
|--0--0--3h4---------3h4----|--5--5-----0--5-------0--|--3--3-----0--3-------0--|

                                                         A5
|-------------------------|---------------------------|------------------------|
|-------------------------|---------------------------|------------------------|
|-------------------------|---------------------------|--2----2----2--2--2--2--|
|--------3--------3-------|------------2-----------2--|--2----2----2--2--2--2--|
|-------------------------|-----------------2---------|--0----0----0--0--0--0--|
|--1--1-----0--1-------1--|--0--0--3h4---------3h4----|------------------------|

   C                        D
|------------------------|-------------------------|--------------------------|
|--5----5--5----5--5--5--|--7----7--7--7--7--7--7--|--7--7--7--7--7--7--7--7--|
|--5----5--5----5--5--5--|--7----7--7--7--7--7--7--|--7--7--7--7--7--7--7--7--|
|--5----5--5----5--5--5--|--7----7--7--7--7--7--7--|--7--7--7--7--7--7--7--7--|
|--3----3--3----3--3--3--|--5----5--5--5--5--5--5--|--5--5--5--5--5--5--5--5--|
|------------------------|-------------------------|--------------------------|

   A5                       C                        D
|------------------------|------------------------|-------------------------|
|------------------------|--5----5--5----5--5--5--|--7----7--7--7--7--7--7--|
|--2----2----2--2--2--2--|--5----5--5----5--5--5--|--7----7--7--7--7--7--7--|
|--2----2----2--2--2--2--|--5----5--5----5--5--5--|--7----7--7--7--7--7--7--|
|--0----0----0--0--0--0--|--3----3--3----3--3--3--|--5----5--5--5--5--5--5--|
|------------------------|------------------------|-------------------------|

                              A5                       C
|--------------------------|------------------------|------------------------|
|--7--7--7--7--7--7--7--7--|------------------------|--5----5--5----5--5--5--|
|--7--7--7--7--7--7--7--7--|--2----2----2--2--2--2--|--5----5--5----5--5--5--|
|--7--7--7--7--7--7--7--7--|--2----2----2--2--2--2--|--5----5--5----5--5--5--|
|--5--5--5--5--5--5--5--5--|--0----0----0--0--0--0--|--3----3--3----3--3--3--|
|--------------------------|------------------------|------------------------|

   D                                                    A5
|-------------------------|--------------------------|------------------------|
|--7----7--7--7--7--7--7--|--7--7--7--7--7--7--7--7--|------------------------|
|--7----7--7--7--7--7--7--|--7--7--7--7--7--7--7--7--|--2----2----2--2--2--2--|
|--7----7--7--7--7--7--7--|--7--7--7--7--7--7--7--7--|--2----2----2--2--2--2--|
|--5----5--5--5--5--5--5--|--5--5--5--5--5--5--5--5--|--0----0----0--0--0--0--|
|-------------------------|--------------------------|------------------------|

   C                        D
|------------------------|-------------------------|--------------------------|
|--5----5--5----5--5--5--|--7----7--7--7--7--7--7--|--7--7--7--7--7--7--7--7--|
|--5----5--5----5--5--5--|--7----7--7--7--7--7--7--|--7--7--7--7--7--7--7--7--|
|--5----5--5----5--5--5--|--7----7--7--7--7--7--7--|--7--7--7--7--7--7--7--7--|
|--3----3--3----3--3--3--|--5----5--5--5--5--5--5--|--5--5--5--5--5--5--5--5--|
|------------------------|-------------------------|--------------------------|

   A5                  G5                  D/A
|-------------------|--3----------------|--2----------------|------------------|
|-------------------|--3----------------|--3----------------|------------------|
|--2----------------|--0----------------|--2----------------|------------------|
|--2----------------|--0----------------|--0----------------|------------------|
|--0----------------|--x----------------|--0----------------|------------------|
|-------------------|--3----------------|-------------------|------------------|

   A5                  G5                  D/A
|-------------------|--3----------------|--2----------------|------------------|
|-------------------|--3----------------|--3----------------|------------------|
|--2----------------|--0----------------|--2----------------|------------------|
|--2----------------|--0----------------|--0----------------|------------------|
|--0----------------|--x----------------|--0----------------|------------------|
|-------------------|--3----------------|-------------------|------------------|

 Guitar solo                                                                       
|----------------------|----------------------|------------------------|
|----------------------|----------------------|------------------------|
|----------------------|----------------------|------------------------|
|----------------------|----------------------|------------------------|
|-------3----5b---3----|--5b---5b---3----5b---|--------3h-5--5b---3----|
|--5-------------------|----------------------|--3h-5------------------|

|--------------------------|-----------------------|-----------------------|
|--------------------------|-----------------------|-----------------------|
|--------------------------|-------------5b--------|--5----7b---5----7--5--|
|--------------------------|--5h-7--7---------7~---|-----------------------|
|--5b-7--5b-7--5b-7--3p-0--|-----------------------|-----------------------|
|--------------------------|-----------------------|-----------------------|
                                                            
|---------------------------|---------8---------------------|
|-------8--8----------------|--8/-10-----10--8--10----13b---|
|--7b---------7r---5--7--5--|-------------------------------|
|---------------------------|-------------------------------|
|---------------------------|-------------------------------|
|---------------------------|-------------------------------|

|------------------------------|------------------------------|
|--15b---15--13--15--15r---13--|--15--15r---13--15--15r---13--|
|------------------------------|------------------------------|
|------------------------------|------------------------------|
|------------------------------|------------------------------|
|------------------------------|------------------------------|

|----------------------------------------|--------0--------------|
|--15--15r-13-15--13--15--15r-13-15--13--|--15b------17b---------|
|----------------------------------------|-----------------------|
|----------------------------------------|-----------------------|
|----------------------------------------|-----------------------|
|----------------------------------------|-----------------------|

|--------------------|----------------------|--15b---17--15--------------------12--|
|--------17~---------|--17b-----17~---------|----------------17--15r---13--15------|
|--------------------|----------------------|--------------------------------------|
|--------------------|----------------------|--------------------------------------|
|--------------------|----------------------|--------------------------------------|
|--------------------|----------------------|--------------------------------------|

|------12----------------------|----------------------------------|
|--15------13~-----------------|------17------17------17------17--|
|----------------14--12--14~---|--19b-----19b-----19b-----19b-----|
|------------------------------|----------------------------------|
|------------------------------|----------------------------------|
|------------------------------|----------------------------------|

|--------------------------------|--19b---17----15b-17--15------|
|--------------------------------|--19b---------------------17--|
|--19r--17-19------17~---19--17--|------------------------------|
|--------------19----------------|------------------------------|
|--------------------------------|------------------------------|
|--------------------------------|------------------------------|

|----------------------------------|----------------------------------|
|--15r---13--15--15--13------------|----------------------------------|
|--------------------------14--12--|--14~---12------------------------|
|----------------------------------|--------------14--12--10--12--10--|
|----------------------------------|----------------------------------|
|----------------------------------|----------------------------------|

|------------------------------|--------------------|-------------------------|
|------------------------------|--------------------|-------------------------|
|------------------------------|--------------------|-------------------------|
|--12b---10----12--10----------|--------------------|--------5--------5-------|
|----------------------12--10--|--12\---------------|-------------------------|
|------------------------------|--------------------|--3--3-----0--3-------0--|

|-------------------------|-----------------------|-------------------------|
|-------------------------|-----------------------|-------------------------|
|-------------------------|-----------------------|-------------------------|
|--------3--------3-------|------------2----------|--------7--------7-------|
|-------------------------|-----------------------|-------------------------|
|--1--1-----0--1-------1--|--0--0--3h4------------|--5--5-----0--5-------0--|

|-------------------------|-------------------------|---------------------------|
|-------------------------|-------------------------|---------------------------|
|-------------------------|-------------------------|---------------------------|
|--------5--------5-------|--------3--------3-------|------------2-----------2--|
|-------------------------|-------------------------|-----------------2---------|
|--3--3-----0--3-------0--|--1--1-----0--1-------1--|--0--0--3h4---------3h4----|

|-------------------------|-------------------------|-------------------------|
|-------------------------|-------------------------|-------------------------|
|-------------------------|-------------------------|-------------------------|
|--------7--------7-------|--------5--------5-------|--------3--------3-------|
|-------------------------|-------------------------|-------------------------|
|--5--5-----0--5-------0--|--3--3-----0--3-------0--|--1--1-----0--1-------1--|

|---------------------------|-------------------------|-------------------------|
|---------------------------|-------------------------|-------------------------|
|---------------------------|-------------------------|-------------------------|
|------------2-----------2--|--------7--------7-------|--------5--------5-------|
|-----------------2---------|-------------------------|-------------------------|
|--0--0--3h4---------3h4----|--5--5-----0--5-------0--|--3--3-----0--3-------0--|

                                                        A5
|-------------------------|---------------------------|------------------------|
|-------------------------|---------------------------|------------------------|
|-------------------------|---------------------------|--2----2----2--2--2--2--|
|--------3--------3-------|------------2-----------2--|--2----2----2--2--2--2--|
|-------------------------|-----------------2---------|--0----0----0--0--0--0--|
|--1--1-----0--1-------1--|--0--0--3h4---------3h4----|------------------------|

   C                        D
|------------------------|-------------------------|--------------------------|
|--5----5--5----5--5--5--|--7----7--7--7--7--7--7--|--7--7--7--7--7--7--7--7--|
|--5----5--5----5--5--5--|--7----7--7--7--7--7--7--|--7--7--7--7--7--7--7--7--|
|--5----5--5----5--5--5--|--7----7--7--7--7--7--7--|--7--7--7--7--7--7--7--7--|
|--3----3--3----3--3--3--|--5----5--5--5--5--5--5--|--5--5--5--5--5--5--5--5--|
|------------------------|-------------------------|--------------------------|

   A5                       C                        D
|------------------------|------------------------|-------------------------|
|------------------------|--5----5--5----5--5--5--|--7----7--7--7--7--7--7--|
|--2----2----2--2--2--2--|--5----5--5----5--5--5--|--7----7--7--7--7--7--7--|
|--2----2----2--2--2--2--|--5----5--5----5--5--5--|--7----7--7--7--7--7--7--|
|--0----0----0--0--0--0--|--3----3--3----3--3--3--|--5----5--5--5--5--5--5--|
|------------------------|------------------------|-------------------------|

                              A5                       C
|--------------------------|------------------------|------------------------|
|--7--7--7--7--7--7--7--7--|------------------------|--5----5--5----5--5--5--|
|--7--7--7--7--7--7--7--7--|--2----2----2--2--2--2--|--5----5--5----5--5--5--|
|--7--7--7--7--7--7--7--7--|--2----2----2--2--2--2--|--5----5--5----5--5--5--|
|--5--5--5--5--5--5--5--5--|--0----0----0--0--0--0--|--3----3--3----3--3--3--|
|--------------------------|------------------------|------------------------|

   D                                                    A5
|-------------------------|--------------------------|-------------------|
|--7----7--7--7--7--7--7--|--7--7--7--7--7--7--7--7--|-------------------|
|--7----7--7--7--7--7--7--|--7--7--7--7--7--7--7--7--|--2----------------|
|--7----7--7--7--7--7--7--|--7--7--7--7--7--7--7--7--|--2----------------|
|--5----5--5--5--5--5--5--|--5--5--5--5--5--5--5--5--|--0----------------|
|-------------------------|--------------------------|-------------------|

   C                                                               A5
|-------------------|-------------------|-----------------------|-------------------|
|--5----------------|-------------------|-----------------------|-------------------|
|--5----------------|-------------------|-----------------------|--2----------------|
|--5----------------|-------------------|-----------------------|--2----------------|
|--3----------------|----------------3--|--3----2--2--0---------|--0----------------|
|-------------------|-------------------|------------------3----|-------------------|

   C
|-------------------|------------------|------------------|
|--5----------------|------------------|------------------|
|--5----------------|------------------|------------------|
|--5----------------|------------------|------------------|
|--3----------------|------------------|------------------|
|-------------------|------------------|------------------|


----------------------------------------------------------------


14 years
Guns N' Roses
Use your illusion II




Pre-chorus:

A5                C              D
   you just don't step inside to, to fourteen years
A5                C              D
   so hard to keep my own head, that's what i said and you know
A5                C        D
   i've been the beg - gar   i've played the thief
A5                C  D  
   i was the dog      they all tried to beat

Chorus:
              A5                 G5               D/A
but it's been fourteen years of silence it's been fourteen years
                  A5                      G5                   D/A
of pain it's been fourteen years that are gone forever and i'll    never

have again   well

 Solo:
|------------------------------------------------------------------|
|------------------------------------------------------------------|
|------------------------------------------------------------------|
|------------------------------------------------------------5h7-7-|
|---3--5fb-3-5fb-5fb-3-5fb-----3h5-5fb-3-5fb5-5fb5-5fb5-3p0--------|
|-5------------------------3h5-------------------------------------|

|---------------------------------------------8--------------|
|---------------------------8-8----------8/10---10-8-10-13fb-|
|-5fb------5-7fb-5--7-5-7fb-----r7p5-7-5---------------------|
|-----7~~----------------------------------------------------|
|------------------------------------------------------------|
|------------------------------------------------------------|

|--------------------------------------------------------------------|
|-15fb-15-13-15-r15-13-15-r15-13-15-r15-13-15-r15p13-13-15-r15p13-13-|
|--------------------------------------------------------------------|
|--------------------------------------------------------------------|
|--------------------------------------------------------------------|
|--------------------------------------------------------------------|

|------0------------------------------------------15--17-15--------------|
|-15fb---17b(1.5)-(17)~~~-17~~~-17b(1.5)--17~~~~~-----------17-r15-13-15-|
|------------------------------------------------------------------------|
|------------------------------------------------------------------------|
|------------------------------------------------------------------------|
|------------------------------------------------------------------------|

|-12----12--------------------------------------------------------|
|----15----13~~~~-------------------17-------17-------17-------17-|
|-----------------14-12-14~~~~-19fb-----19fb-----19fb-----19fb----|
|-----------------------------------------------------------------|
|-----------------------------------------------------------------|
|-----------------------------------------------------------------|

|-----------------------------19hb--17-15fb-15-15----------------------|
|-----------------------------19hb----------------17-15fbrp13-15-13-15-|
|-19fbrp17-19----17~~~~-19-17------------------------------------------|
|-------------19-------------------------------------------------------|
|----------------------------------------------------------------------|
|----------------------------------------------------------------------|

|-----------------------------------------------------------------|
|-----------------------------------------------------------------|
|-14-12-14~~~~-12-------------------------------------------------|
|-----------------14-12-10-12-10-12fb-10-12-10--------------------|
|----------------------------------------------12-10--------------|
|-----------------------------------------------------------------|





Comments


Popular Guns N Roses tabs & chords
I Used To Love Her Bass Tabs
Its So Easy 3 Bass Tabs
Rocket Queen 3 Bass Tabs
Dont Cry 1 Chords
Wild Horses 1 Chords
Paradise City Drum Tabs
Perfect Crime Tabs
Yesterdays Tabs
Yesterdays 1 Tabs
Nightrain Ukulele


Song lyrics



↑ Back to top | Tablatures and chords are parodies/interpretations of the original songs. You may use it for private study, scholarship, research or language learning purposes only
© 2014 AZChords.com Contact us | Privacy policy | DMCA | Add/correct tabs | Request tabs | Top 50 tabs