» » »

G Unit, Stunt 1 Tabs (ver.1)

Artists:  A B C D E F G H I J K L M N O P Q R S T U V W X Y Z # 

Stunt 1 Tabs (ver.1)

G Unit Tabs
 Rating:
4/5 (4 votes)
Stunt 1 lessons Tabs too difficult? Try these video lessons and learn fast
                "(0)
Stunt 101										12/19/03

Main Riff/Verse (guitar one)
E----------------------------------------------------------
B-------10-109-9-9-9-9-9/10-----------10-109-9-9-9-9-9/10
G---------------------------------------9--98-8-8-8-8-8/9-
D-7~------------------------------7~-----------------------
A-7~------------------------------7~-----------------------
E-5~------------------------------5~-----------------------

Main Riff/Verse (guitar 2)
E----------------------
B----------------------
G----------------------
D-7-7-7-7-7-7-7-7-7-7-7
A-7-7-7-7-7-7-7-7-7-7-7
E-5-5-5-5-4-4-4-4-4-4-5

Chorus (guitar 1)
E-------------------------------------------------------------
B------10-109-9-9-9-9-9/10---------------10-109-9-9-9-9-9/10
G------------------------------------------9--98-8-8-8-8-8/9-
D-7~------------------------------7~---------------------------
A-7~------------------------------7~---------------------------
E-5~------------------------------5~---------------------------

Chorus (guitar 2)
E----------------------
B----------------------
G----------------------
D-7-7-7-7-6-6-6-6-6-6-7
A-7-7-7-7-6-6-6-6-6-6-7
E-5-5-5-5-4-4-4-4-4-4-5
"            
Submit corrections

comments powered by Disqus
↑ Back to top | G Unit Tabs for Stunt 1. Lyrics for acoustic guitar and electric guitar. Tablatures and chords are parodies/interpretations of the original songs. You may use it for private study, scholarship, research or language learning purposes only