>
 >
Teenage Fbi

Teenage Fbi Guitar Tabs

Guided By Voices - Teenage Fbi chords, tabs, tablatures, lyrics

Guitar lessons | Add/correct | Request | Top 50 tabs Artists:  A B C D E F G H I J K L M N O P Q R S T U V W X Y Z 0-9

Teenage Fbi Guitar Tabs – Guided By Voices

CD, Sheet music, Poster

Do you like Teenage Fbi? Share with your friends now
ChordsTabsUkulele
Guided By Voices,Teenage FBI.
  
e-----------------------------------------------------
b-----------------------------------------------------
g-----------------------------------------------------
d-----------------------------------------------------
a-----------------------------------------------------
E--0--0-0--0--0--0--0--0--0--0---00--0--00----00--0---

Somewhan tell me why...
e-----------------------------------------------------
b-----------------------------------------------------
g-----------------------------------------------------
d-----------------------------------------------------
a---------------------------5-0--5-0--5-0--5-0--5-0---
E---1-0--1-0--1-0--1-0--1-0---------------------------

P.M.-------------------------------------------------]

e-----------------------------------------------------
b-----------------------------------------------------
g-----------------------------------------------------
d-----------------------------------------------------
a-----------------------------------------------------
E--3-1--3-1--3-1--3-1--7-5--7-5--7-5--7-5--3-1--3-1---

P.M.-------------------------------------------------]
I act like a fool...
e-----------------------------------------------------
b-----------------------------------------------------
g----------------------0------------------------------
d--------------------2---2----------------------------
a--x-x-x-3---x-x-x-3-------3-x------------------------
E-----------------------------------------------------
Repeat 2x
                 Here is the raison I ges...
e-----------------------------------------------------
b---------------|-------------------------------------
g---------------|-----5-------5-----------------------
d---------------|---5---5---5---5-------3-------3-----
a--3-3-3-3-3-3-3|-3-------3-----------3---3---3---3---
E---------------|-------------------1-------1---------
                 repeat 2x
When you clean up the hide...
e-----------------------------------------------------
b-----------------------------------------------------
g-----------------------------------------------------
d------7-------7-------5-------5----------------------
a----7---7---7---7---5---5---5---5--------------------
E--5-------5-------3-------3--------------------------
Repeat 2x
Somewhan tell me why?
e-----------------------------------------------------
b-----------------------------------------------------
g--5-5-5-5-5-5-5-5------------------------------------
d--5-5-5-5-5-5-5-5-3-3-3-3-3-3-3-3--------------------
a--3-3-3-3-3-3-3-3-3-3-3-3-3-3-3-3--------------------
E------------------1-1-1-1-1-1-1-1--------------------
Repeat 2x

e-----------------------------------------------------
b-----------------------------------------------------
g-----------------------------------------------------
d--7-7-7-7-7-7-7-7-5-5-5-5-5-5-5-5--------------------
a--7-7-7-7-7-7-7-7-5-5-5-5-5-5-5-5--------------------
E--5-5-5-5-5-5-5-5-3-3-3-3-3-3-3-3--------------------
Repeat 2x

Solo:
e-----------------------------------------------------
b--1-3-5-8---1-3-5-6-8---1-3-5-8-8/10--8-6--6-8-1-----
g-----------------------------------------------------
d-----------------------------------------------------
a-----------------------------------------------------
E-----------------------------------------------------

e-----------------------------------------------------
b-8/10--8-6--6-8-13-12-8---8-8-8-8-12-12-12-12-/------
g-----------------------------------------------------
d-----------------------------------------------------
a-----------------------------------------------------
E-----------------------------------------------------

bridge:
e-----------------------------------------------------
b-----------------------------------------------------
g-----------------------------------------------------
d-----------------------------------------------------
a-----------------------------------------------------
E--1-3-5-6-8-6-3-1-1-3-5-6-10-8-7-5-------------------

Thath's it. You can firgure out the ritym.
This is a song from the album of Buffy the vampire slayer.





Comments


Popular Guided By Voices tabs & chords
Echoes Myron 1 Chords
Motor Away Chords
Under The Bushes Chords
Weed King Chords
Look At Them Tabs
Rhine Jive Click Tabs
Under The Bushes Tabs
I Am A Tree Ukulele
Things I Will Keep Ukulele
Underwater Explosions Ukulele


Song lyrics



↑ Back to top | Tablatures and chords are parodies/interpretations of the original songs. You may use it for private study, scholarship, research or language learning purposes only
© 2014 AZChords.com Contact us | Privacy policy | DMCA | Add/correct tabs | Request tabs | Top 50 tabs