» » »

Redmen And Their Wives Tabs (ver.1)

Artists:  A B C D E F G H I J K L M N O P Q R S T U V W X Y Z # 

Redmen And Their Wives Tabs (ver.1)

Guided By Voices
Rating:
0/5 (0 votes)

Hard to play? Try these video lessons and learn fast.
                e|------------------------------------------------------|
B|------------------------------------------------------|
G|------------------------------------------------------|
D|-----7-7\5-----5-5\3-------3---3-----3---3---3--------|
A|-0-5-------0-3--------0-1--1-1-1-1-1-1-1-1-1-1-1-1----|
E|------------------------------------------------------|


e|--------------------------|---------------------------------|
B|--------------------------|---------------------------------|
G|--------------------------|---------------------------------|
D|-----7-7\5-----5-5\3------|-3-3-3-3-3-3-3-3-----------------|
A|-0-5-------0-3--------0-1-|-1-1-1-1-1-1-1-1-3-3-3-3-3-3-3-3-|
E|--------------------------|-----------------1-1-1-1-1-1-1-1-|
                                   Fall out of bed

e|-----------------------------------------------------|
B|-----------------------------------------------------|
G|-----------------------------------------------------|    Repeat from
D|-5-5-5-5-5-5-5-5-------------------------------------|     bar above
A|-3-3-3-3-3-3-3-3-5-5-5-5-5-5-5-5-5-------------------|
E|-----------------3-3-3-3-3-3-3-3-3-------------------|
  They're issuing lives for redmen and their wives

Fall out of bed
they're issuing lives for redmen and their wives
offering hands
and twiddling thumbs, for dreams that never come
often said
you better not look away, you'll lose the day
Am         Dm
the way i see it
it's already lost
so then be it, they say

they're sharpening knives
and primitive lives, for redmen and their wives
bread winners and klutz
and losing it all before the one eye shuts
well i see it
as paying the price, nobody feels it these days

well i'd like to go
and kiss them away
well i'd like to know
another way
did you notice that
they're taking back lives from redmen just to

give them time to find the light
and other things that bind with pride
a killer's waking up this time
to honest gleam and needless pride
we'll never see it shine
we'll never find the time
we'll never see it shine
we'll never find the time...
            
Hard to play? Try these video lessons and learn fast. | Correct




comments powered by Disqus
↑ Back to top | Tablatures and chords are parodies/interpretations of the original songs. You may use it for private study, scholarship, research or language learning purposes only