» » »

Guided By Voices, Non Absorbing Tabs (ver.1)

Artists:  A B C D E F G H I J K L M N O P Q R S T U V W X Y Z # 

Non Absorbing Tabs (ver.1)

Guided By Voices Tabs
Rating:
0/5 (0 votes)
Non Absorbing lessons Tabs too difficult? Try these video lessons and learn fast
                -------------------------------------------------------------------------------
                         NON-ABSORBING - Guided By Voices
-------------------------------------------------------------------------------

Tuning: Standard (album version is slightly detuned)
Capo: 1st fret

A   X022XX
Gbm 2442XX

A
Do you see me, doo doo doo doo doo doo doo doo
Gbm
Like I see you, doo doo doo doo doo doo doo doo
A
Do you see me, doo doo doo doo doo doo doo doo
Gbm
Like I see you, doo doo doo doo doo doo doo doo
A
Do you see me

e|---------------------------------------------------------------------------|
B|---------------------------------------------------------------------------|
G|-2----0-----2--0-------------------2----0---------------2--0---------------|
D|-2----2-----2--2--4----------------2----2---------------2--2--4------------|
A|-0----0-----0--0--0----------------0----0---------------0--0--0------------|
E|---------------------------------------------------------------------------|
   Time lost, can't ever understand. The lines like most, we wants to be alone

e|---------------------------------------------------------------------------|
B|---------------------------------------------------------------------------|
G|---------------------------------------------------------------------------|
D|-4--3-----------------------2----------------------------------------------|
A|-0--0-----------------------0----------------------------------------------|
E|---------------------------------------------------------------------------|
         But we can't be alone

A
Do you see me, doo doo doo doo doo doo doo doo
Gbm
Like I see you, doo doo doo doo doo doo doo doo
A
Do you see me, doo doo doo doo doo doo doo doo
Gbm
Like I see you, doo doo doo doo doo doo doo doo
A
Do you see me

e|---------------------------------------------------------------------------|
B|---------------------------------------------------------------------------|
G|-2--0--------------------------------------2--0----------------------------|
D|-2--2-------3--2---------------------------2--2----------3--2--------------|
A|-0--0-------0--0---------------------------0--0----------0--0--------------|
E|---------------------------------------------------------------------------|
        Can't believe the things we ask for, can't believe the things we want

Strumming
e|---------------------------------------------------------------------------|
B|---------------------------------------------------------------------------|
G|-2--2--------------------------2--------------2----------------------------|
D|-2--3--------------------------4--------------5----------------------------|
A|-0--0--------------------------0--------------0----------------------------|
E|---------------------------------------------------------------------------|
      Do you see more than I do? Do you see me? Do you see more than I do?

2nd guitar
e|---------------------------------------------------------------------------|
B|---------------------------------------------------------------------------|
G|--6------------------------------------------------------------------------|
D|--7------------------------------------------------------------------------|
A|--7------------------------------------------------------------------------|
E|--5------------------------------------------------------------------------|
    Do you see me, doo doo doo doo doo doo doo doo doo

e|---------------------------------------------------------------------------|
B|---------------------------------------------------------------------------|
G|--6------------------------------------------------------------------------|
D|--7------------------------------------------------------------------------|
A|--7------------------------------------------------------------------------|
E|--7------------------------------------------------------------------------|
    Do you see me?

e|---------------------------------------------------------------------------|
B|---------------------------------------------------------------------------|
G|--6------------------------------------------------------------------------|
D|--7------------------------------------------------------------------------|
A|--0------------------------------------------------------------------------|
E|--9------------------------------------------------------------------------|
    Do you see me, doo doo doo doo doo doo doo doo doo

e|---------------------------------------------------------------------------|
B|---------------------------------------------------------------------------|
G|--6------------------------------------------------------------------------|
D|--7------------------------------------------------------------------------|
A|--0------------------------------------------------------------------------|
E|--10-----------------------------------------------------------------------|
    Do you see me?

e|---------------------------------------------------------------------------|
B|---------------------------------------------------------------------------|
G|--6---7---9---7---6---7---6------------------------------------------------|
D|--7------------------------------------------------------------------------|
A|--7---7---7---7---7---7---7------------------------------------------------|
E|--5---5---5---5---5---5---5------------------------------------------------|
    

e|---------------------------------------------------------------------------|
B|---------------------------------------------------------------------------|
G|--6------------------------------------------------------------------------|
D|--7------------------------------------------------------------------------|
A|--7------------------------------------------------------------------------|
E|--7------------------------------------------------------------------------|
    Do you see more than I do?

e|---------------------------------------------------------------------------|
B|---------------------------------------------------------------------------|
G|--6------------------------------------------------------------------------|
D|--7------------------------------------------------------------------------|
A|--0------------------------------------------------------------------------|
E|--9------------------------------------------------------------------------|
    Do you see more than I do?

e|---------------------------------------------------------------------------|
B|---------------------------------------------------------------------------|
G|--6------------------------------------------------------------------------|
D|--7------------------------------------------------------------------------|
A|--0------------------------------------------------------------------------|
E|--10-----------------------------------------------------------------------|
    Do you see more than I do?

End on A
            
Submit corrections

comments powered by Disqus
↑ Back to top | Guided By Voices Tabs for Non Absorbing. Lyrics for acoustic guitar and electric guitar. Tablatures and chords are parodies/interpretations of the original songs. You may use it for private study, scholarship, research or language learning purposes only