>
 >
American Woman

American Woman Guitar Tabs

Guess Who - American Woman chords, tabs, tablatures, lyrics

Guitar lessons | Add/correct | Request | Top 50 tabs Artists:  A B C D E F G H I J K L M N O P Q R S T U V W X Y Z 0-9

American Woman Guitar Tabs – Guess Who

CD, Sheet music, Poster

Do you like American Woman? Share with your friends now
Bass TabsBass Tabs v2ChordsTabsTabs v2Tabs v3Ukulele
e:--'0'--|
B:--'0'--|
G:--'1'--|
D:-------|
A:-------|
E:-------|



Section 1:  Play 5 times.

e:---------------------------------------------------|
B:--6--6--5--5--4--4--3------------------------------|
G:--7--7--6--6--5--5--4------------------------------|
D:---------------------------------------------------|
A:-----------------------5--5h7--5--5--5--5h7--5--5--|
E:-----------------------3--3----3--3--3--3----3--3--|



Section 2:   Play 2 times.                                             

e:------------------------------------------------------------|
B:--3--3--8--6--3---------------------------------------------|
G:--4--4--9--7--4---------------------------------------------|
D:------------------------------------------------------------|
A:-----------------5--5h7--5--5--5--5h7--5--5-----------------|
E:-----------------3--3----3--3--3--3----3--3-----------------|



Section 3:  Play 5 times then play section one 4 times.

e:-----------------------------------------------|
B:--3--3--8--6--3-------------13--15--15--15-----|
G:--4--4--9--7--4-------------14--16--16--16-----|
D:-----------------------------------------------|
A:-----------------5--5h7--5------------------5--|
E:-----------------3--3----3------------------3--|



Section 4:  When the electric guitar kicks in!

e:----------------------------------------------------------------------|
B:----------------------------------------------------------------------|
G:--8----7----9--9--9--9--9--7--9--9--9----8----7--9--9--9--9--9--7--9--|
D:--9----7----9--9--9--9--9--7--9--9--9----9----7--9--9--9--9--9--7--9--|
A:--9----5----7--7--7--7--7--5--7--7--7----9----5--7--7--7--7--7--5--7--|
E:----------------------------------------------------------------------|





Comments


Popular Guess Who tabs & chords
These Eyes Bass Tabs
Sour Suite Chords
Hand Me Down World Tabs
Hand Me Down World 3 Tabs
Laughing Tabs
Laughing 1 Tabs
No Sugar Tonight Intro Tabs
Clap For The Wolfman Ukulele
Glace Bay Blues Ukulele
These Eyes Ukulele


Song lyrics



↑ Back to top | Tablatures and chords are parodies/interpretations of the original songs. You may use it for private study, scholarship, research or language learning purposes only
© 2014 AZChords.com Contact us | Privacy policy | DMCA | Add/correct tabs | Request tabs | Top 50 tabs