» » »

Never Say Goodbye Tabs (ver.1)

Artists:  A B C D E F G H I J K L M N O P Q R S T U V W X Y Z # 

Never Say Goodbye Tabs (ver.1)

Guardian
Rating:
0/5 (0 votes)

Hard to play? Try these video lessons and learn fast.
                G                              D

You and I we've been thru some hard times

C                                        G     C

You think of all the times I've seen you fall

G                                    D

But through all the rain and all the grey skies

C                                  G

I haven't lost any love for you at all.

 

        Em         D       C                G

If your eyes could see how much you mean to Me

    Em      D        C                  -

You take My hand, My love would set you free

 

(same as above)

It's another heartache, and it's another day

You sit and watch your life pass you by like a cold winter's day

You take a look around you, you see the fragments of your broken dreams

But we pick up the pieces and we carry on.

 

        Em         D       C                G

If your eyes could see how much you mean to Me

    Em      D        C   -              D    -                

You take My hand, My love would set you free

 

        G           D       C   -

And I'm never gonna say goodbye

    G               Am            D    -

I'm always standing right by your side

       G               D               C               Em

And no matter what you do, you know My love belongs to you,

        Am          C       D   -

And I'm never gonna say goodbye.

 

Am                                   Em

And everyday life seems a little bit colder

G                               D

Waiting for love in the pouring rain

Am                                  Em

You can cast all your cares upon My shoulder

D                    C

I gave My Son for you, and I'll never turn away from you, no no!

 

G                                      D

|------------------|------------------|---------2--------|------------------|
|-------------3----|------------------|-------3----------|-5-3--3h5p3-------|
|-----4-5p4--------|------------------|-----2------------|------------------|
|-5---------5------|------------------|------------------|------------------|
|------------------|------------------|------------------|------------------|
|------------------|------------------|------------------|------------------|

 
C                                      G
|------------------|------------------|------------------|------------15-17-|
|---------7h8p7----|------------------|------------------|----------15------|
|---------------7--|-----7------------|------------------|------------------|
|------------------|-10----7-----5-7--|-7\5--------------|------------------|
|------------------|------------------|---------7\5------|------------------|
|------------------|------------------|---------------7--|-7----------------|

 
G                                      D
|-19------17-------|-15------12-------|-10------12-------|-10---------10-12-|
|------------------|------------------|------------------|------------------|
|------------------|------------------|------------------|------------------|
|------------------|------------------|------------------|------------------|
|------------------|------------------|------------------|------------------|
|------------------|------------------|------------------|------------------|

 
C                                      G
|-15------17-------|-12------12-------|-10-\-5--7-\-0----|-3----------------|
|------------------|------------------|------------------|------------------|
|------------------|------------------|------------------|------------------|
|------------------|------------------|------------------|------------------|
|------------------|------------------|------------------|------------------|
|------------------|------------------|------------------|------------------|

 
        Em         D       C                G

If your eyes could see how much you mean to Me

    Em      D        C   -              D    -                

You take My hand, My love would set you free

 

        G           D       C   -

And I'm never gonna say goodbye

    G               Am            D    -

I'm always standing right by your side

       G               D               C               Em

And no matter what you do, you know My love belongs to you,

        Am          C       D   -

And I'm never gonna say goodbye.

       Am          C       G F C -

No I'm never gonna say goodbye.

                    G F C -

Never gonna say goodbye...

The End!!!
            
Hard to play? Try these video lessons and learn fast. | Correct




comments powered by Disqus
↑ Back to top | Tablatures and chords are parodies/interpretations of the original songs. You may use it for private study, scholarship, research or language learning purposes only