» » »

White Chocolate Bass tabs (ver.1)

Artists:  A B C D E F G H I J K L M N O P Q R S T U V W X Y Z # 

White Chocolate Bass tabs (ver.1)

Group X
Rating:
0/5 (0 votes)

Hard to play? Try these video lessons and learn fast.
                Country : Saudi Arabia (I think)
Albums: 40 oz. Slushie, Group X


Band: Group X


Intro (x5)
|-------------------------------|
|-14--14-14--15--15-15-15-15-15-|
|- 0-- 0- 0-- 0-- 0- 0- 0- 0- 0-|
|------------13--13-13-13-13-13-|

Verse
|---11-12-11-12-11-9-11-11-11-|---11-12-11-12-14-12-11-------|
|-9---------------------------|-9----------------------12-11-|
|-----------------------------|------------------------------|
|-----------------------------|------------------------------|

|---11-12-11-12-11----------------|---11-12-11-12---------------12-|
|-9----------------12p11-12p11----|-9------------------------------|
|------------------------------12-|--------------------------------|
|---------------------------------|--------------------------------|

|---11-12-11-12-11-9-11-9-11-|---11-12-11-12-14-12-11-------|
|-9--------------------------|-9----------------------12-11-|
|----------------------------|------------------------------|
|----------------------------|------------------------------|

|---11-12-11-12-11----------------|---11-12-11-12------------------|
|-9----------------12p11-12p11----|-9------------------------12-11-|
|------------------------------12-|--------------------------------|
|---------------------------------|--------------------------------|

|---11-12-11-12-11----------------|---11-12-11-12---14-14-14-------|
|-9----------------12p11-11-------|-9------------------------12----|
|------------------------------12-|-----------------------------12-|
|---------------------------------|--------------------------------|

Chorus
|-----------------------------|-----------------------------|
|-----------------------------|-----------------------------|
|---0-------------------------|---0--------------------3--3-|
|-0---0--1h3p0-1---1--1--1--1-|-0---0--1h3p0-1---1--1-------|

|-----------------------------|-----------------------------|
|-----------------------------|-----------------------------|
|---0-------------------------|---0-------------------------|
|-0---0--1h3p0-1---1--1--1--1-|-0---0--1h3p0-1---1--1--1--1-|

Verse 2
|---11-12-11-12-11-9-11-11-11-|---11-12-11-12-14-12-11-------|
|-9---------------------------|-9----------------------12-11-|
|-----------------------------|------------------------------|
|-----------------------------|------------------------------|

|---11-12-11-12-11----------------|---11-12-11-12---------11h12p11-|
|-9----------------12p11-12p11----|-9------------------------------|
|------------------------------12-|--------------------------------|
|---------------------------------|--------------------------------|

|---11-12-11-12-11-9-11-9-11-|---11-12-11-12-14-12-11-------|
|-9--------------------------|-9----------------------12-11-|
|----------------------------|------------------------------|
|----------------------------|------------------------------|

|---11-12-11-12-11----------------|---11-12-11-12------------------|
|-9----------------12p11-12p11----|-9------------------------11h12-|
|------------------------------12-|--------------------------------|
|---------------------------------|--------------------------------|

|---11-12-11-12-11----------------|---11-12-11-12------------------|
|-9----------------12p11-12p11----|-9------------------------12-11-|
|------------------------------12-|--------------------------------|
|---------------------------------|--------------------------------|

|---11-12-11-12-11----------------|---11-12-11-12---14-14-14-------|
|-9----------------12p11-11-------|-9------------------------12----|
|------------------------------12-|-----------------------------12-|
|---------------------------------|--------------------------------|

Chorus (x2)

Chorus (2:02)

Outro (2:19) (x4)
|------------------|-------------------|
|------------------|-------------------|
|-------9--9--9--9-|-------10-10-10-10-|
|-7--7-------------|-8--8--------------|
            
Hard to play? Try these video lessons and learn fast. | Correct




comments powered by Disqus
↑ Back to top | Tablatures and chords are parodies/interpretations of the original songs. You may use it for private study, scholarship, research or language learning purposes only