» » »

Group X, Idioth Bass tabs (ver.1)

Artists:  A B C D E F G H I J K L M N O P Q R S T U V W X Y Z # 

Idioth Bass tabs (ver.1)

Group X Tabs
Rating:
0/5 (0 votes)
Hard to play? Try these video lessons and learn fast.
                --------------------------------------------
	 "Idioth" - Group X
--------------------------------------------

Tuning: Standard EADG

    VERSE
G|--14h15-------12h14-14-|
D|-----------------------|
A|-----------------------|
E|-3------3-3-3----------|

G|----14h15-------------|
D|----------------------|
A|----------------------|
E|--3-------3-3-3-5-6---|

     CHORUS
G|----------------------|
D|----------------------|
A|----------------------|
E|-3--3-3-3-1-0---0-0-0-|

G|-----------------------|
D|-----------------------|
A|----------5---3--3-3-3-|
E|-3--3-3-3---3----------|
            

comments powered by Disqus
↑ Back to top | Group X Bass for Idioth. Lyrics for acoustic guitar and electric guitar. Tablatures and chords are parodies/interpretations of the original songs. You may use it for private study, scholarship, research or language learning purposes only