» » »

(France) Bass tabs (ver.1)

Artists:  A B C D E F G H I J K L M N O P Q R S T U V W X Y Z # 

(France) Bass tabs (ver.1)

Group X
Rating:
0/5 (0 votes)

Hard to play? Try these video lessons and learn fast.
                Country : Saudi Arabia (I think)
Albums: 40 oz. Slushie, Group X


Band: Group X

I think this song is played on a 5-String 
because there's an Eb in the song, but because
a lot of people don't have a 5-String, this tab
is for a 4-string tuned down one half of a step
(Eb Ab Db Gb).

 Intro
Gb|-------------------1-|---------------------|
Db|----------------2----|-----4---------------|
Ab|------------/4-------|--------------4------|
Eb|-2-------------------|---------------------|

 Verse
|---------------------|---------------------|
|---------------------|---------------------|
|-2-2-2-4---2-2-2-4---|---------------------|
|---------------------|-2--2--0--0-0--------|

|---------------------|---------------------|
|---------------------|-4--4--2--2-2--------|
|-2-2-2-4---2-2-2-4---|---------------------|
|---------------------|---------------------|

|---------------------|---------------------|
|---------------------|---------------------|
|-2-2-2-4---2-2-2-4---|---------------------|
|---------------------|-2--2--0--0-0--------|

|---------------------|---------------------|
|---------------------|-4--4--2--2-2--------|
|-2-2-2-4---2-2-2-4---|---------------------|
|---------------------|---------------------|

|---------------------|---------------------|
|---------------------|---------------------|
|-2-2-2-4---2-2-2-4---|---------------------|
|---------------------|-2--2--0--0-0--------|

|---------------------|---------------------|
|---------------------|-4--4--2--2-2--------|
|-2-2-2-4---2-2-2-4---|---------------------|
|---------------------|---------------------|

 Chorus
|---------------------|---------------------|
|--------------2-2-2--|---------------------|
|-4---2---------------|-4---2---------2-2-2-|
|---------4-----------|---------4-----------|

|---------------------|---------------------|
|-----4---6-----------|---------------------|
|-4-------------------|-4---2---------2-2-2-|
|---------------------|---------4-----------|

 Verse

 Chorus

 Interlude (x7)
|---------------------|
|------1--------------|
|---------------/4----|
|-2-------------------|

Verse 3
|---------------------|---------------------|
|---------------------|---------------------|
|-2-2-2-4---2-2-2-4---|---------------------|
|---------------------|-2--2--0--0-0--------|

|---------------------|---------------------|
|---------------------|-4--4--2--2-2--------|
|-2-2-2-4---2-2-2-4---|---------------------|
|---------------------|---------------------|

|---------------------|---------------------|
|---------------------|---------------------|
|-2-2-2-4---2-2-2-4---|---------------------|
|---------------------|-2--2--0--0-0--------|

|---------------------|---------------------|
|---------------------|-4--4--2--2-2--------|
|-2-2-2-4---2-2-2-4---|---------------------|
|---------------------|---------------------|

Chorus (x2) (Fade Out)


lyrics

1. shmy shmy shmy shmy music in me so good 
   makes me say o my god thank u for giving 
   me a two hip ryhme and a two hip beaty feel good
   and i dont know what but thats my hotdog 	
   and u cant so get ur hands off and u know what 
   thats my hotdog     cant touch     


2. every time u see me hashmeer is in trouble i like to chew 
   gum and i like to blow a bubble  one time i blew a bubble 
   so big inside of the bubble was a little kid  little kid come
   out and he says to me shwat i say get ur hands my hotdog   
   that is something      cant touch


3. when i get tired i like to take a nap and u say group x
   steal the beats and thats buch of cr*p y would we ever stop 
   doing that cause puff daddy do it exept he cannot rap
   been around the world from chicago to yew nork its hashmeer
   go   hashmeer go   hashmeer go  hashmeer go and the rest can go away 
   shwat?
            
Hard to play? Try these video lessons and learn fast. | Correct




comments powered by Disqus
↑ Back to top | Tablatures and chords are parodies/interpretations of the original songs. You may use it for private study, scholarship, research or language learning purposes only