» » »

Group X, Down Touch That I Demand Bass tabs (ver.1)

Artists:  A B C D E F G H I J K L M N O P Q R S T U V W X Y Z # 

Down Touch That I Demand Bass tabs (ver.1)

Group X Tabs
 Rating:
4/5 (4 votes)
Down	 Touch That I Demand lessons Tabs too difficult? Try these video lessons and learn fast
1
                Intro/Verse/Chorus (x2)
|--------------------------|--------------------------|
|--------------------------|--------------------------|
|-5--3--2--0----2-----2--0-|-5--3--2--0----2-----2--0-|
|------------------3-------|------------------3-------|

 Verse (x2)

 Chorus (x2)

 Verse (x2)

 Verse 2 Extra Riff
|--------------------------|--------------------------|
|--------------------------|--------------------------|
|-5--3--2--0----2-----2--0-|-5--3--2--0----2----------|
|------------------3-------|------------------3-------|

 Chorus (x2)

 Interlude (Hashmeer Time!)
|--------------------------|--------------------------|
|-------0--2--0------------|--------------------------|
|-0--3-----------3--0------|-0---0---0---0--0---0-----|
|----------------------3---|--------------------------|

|--------------------------|--------------------------|
|-------0--2--0------------|--------------------------|
|-0--3-----------3--0------|-0---0---0---0--0---0-----|
|----------------------3---|--------------------------|

 Verse (x7)

Interlude
            
Submit corrections

comments powered by Disqus
↑ Back to top | Group X Bass for Down Touch That I Demand. Lyrics for acoustic guitar and electric guitar. 1 Tablatures and chords are parodies/interpretations of the original songs. You may use it for private study, scholarship, research or language learning purposes only