» » »

Group X, Come Arabian Tabs (ver.1)

Artists:  A B C D E F G H I J K L M N O P Q R S T U V W X Y Z # 

Come Arabian Tabs (ver.1)

Group X Tabs
Rating:
0/5 (0 votes)
Hard to play? Try these video lessons and learn fast.
                TUNE TO DROPPED D

~ = let ring

INTRO
E--------------------------------------------
B--------------------------------------------
G-----7-6-4----------------7-6-4-------4-2---
D-0-0------7-6-7-4-2--0-0-------7-6-2-4------
A-0-0-----------------0-0--------------------
D-0-0-----------------0-0--------------------

CHORUS 2X
E--------------------------------------
B--------------------------------------
G--------------------------------------
D--5-5--9-9--7-7-7-7-------------------
A--5-5--9-9--7-7-7-7-------------------
D--5-5--9-9--7-7-7-7-------------------

VERSE 2X
E----------------------
B-------3--------------
G---4~---2~--4~--2~----
D--2--------5---4------
A----------------------
D----------------------

END
E---------
B---------
G---------
D--5~--5--
A--5~--5--
D--5~--5--

That's it. if there's any mistakes tell me so i can fix them. dont forget to rate it...watever im going to bed....
            

comments powered by Disqus
↑ Back to top | Group X Tabs for Come Arabian. Lyrics for acoustic guitar and electric guitar. Tablatures and chords are parodies/interpretations of the original songs. You may use it for private study, scholarship, research or language learning purposes only