» » »

Grouplove, Tongue Tied Bass tabs (ver.1)

Artists:  A B C D E F G H I J K L M N O P Q R S T U V W X Y Z # 

Tongue Tied Bass tabs (ver.1)

Grouplove Tabs
Rating:
0/5 (0 votes)
Tongue Tied lessons Tabs too difficult? Try these video lessons and learn fast
                -------------------------------------------------------------------------------
-------------------------------------------------------------------------------


super detailed so listen to the song. My 2nd tab and 1st bass tab. Enjoy

INTRO (Bass doesn't actually play this part)
G|--8-8-8-8-8-8-8-8|8-8-8-8-8------------------------------------------------|
D|-----------------|----------8-8-8------------------------------------------|
A|-----------------|---------------------------------------------------------|
E|-----------------|---------------------------------------------------------|


VERSE PART 1
    "Take me to your best friend's house--Spinning round this round about"
G|---------------------|------------------------------------------------------|
D|---------------------|------------------------------------------------------|
A|------------------6--|----------------6--8----------------------------------|
E|--4---4---4---4------|-4---4---4---4----------------------------------------|

VERSE PART 2
   "Oh yeah"
G|-----------------------|----------------------------------------------------|
D|---------12--12--------|-------12--12---------------------------------------|
A|---6--6-----------11\6-|-6--6-----------------------------------------------|
E|-----------------------|----------------------------------------------------|

   ==(Alternatively) a little easier== 
G|---------7--7-----|--------7--7---------------------------------------------|
D|---------------8--|---------------8-----------------------------------------|
A|---6--6-----------|-6--6----------------------------------------------------|
E|------------------|---------------------------------------------------------|

  CHORUS: 
G|---------------|--------------|------3-----|------------|------------------|----------------|
D|-------5-------|------3-------|-1--------1-|------------|------------------|----------------|
A|--3----------3-|-1----------1-|------------|------5-----|----------3-3-6-6-|--------3-3-6-6-|
E|---------------|--------------|------------|-3--------3-|--4-4-6-6---------|4-4-6-6---------|

  CHORUS*
G|---------------|--------------|------3-----|------------|----------------|-----------------|
D|-------5-------|------3-------|-1--------1-|------------|----------------|-----------------|
A|--3----------3-|-1----------1-|------------|------5-----|----------------|-4-4-4-4-4-4-4-4-|
E|---------------|--------------|------------|-3--------3-|-4-4-4-4-4-4-4-4|-----------------|

INTERLUDE ( 3 measure phrase)
G|------3-5-|----------|-------------------------------------------------------|
D|--3-6-----|-----3----|-1--1--1-----------------------------------------------|
A|----------|-3-6---6--|-------------------------------------------------------|
E|----------|----------|-------------------------------------------------------|

 ENDING  (changes. sometimes measures 2 and 3 are played like measures 1 and 2 of INTERLUDE)
G|-----------|------5------|-------------|-------3------|------------------------|
D|-----3-----|--3-------3--|------5------|--1--------1--|------------------------|
A|--1-----1--|-------------|-3---------3-|--------------|------------------------|
E|-----------|-------------|-------------|--------------|------------------------|

 OUTRO
G|---------------------------------------------------------------------------|
D|---------------------------1-----------------------------------------------|
A|-------------------3-------------------------------------------------------|
E|---4-------1---------------------------------------------------------------|



ENDING and CHORUS are simplified but play around with it until it sounds the way you want it to.
Sorry the order is kind of confusing. :D


ORDER:
[INTRO] x4
[VERSE PART 1] x1
[VERSE PART 2] x2
[VERSE PART 1] x1
[VERSE PART 2] x1
[VERSE PART 1] x1
[VERSE PART 2] x1
[CHORUS] x1
[VERSE PART 2] x2
[VERSE PART 1] x1
[VERSE PART 2] x1
[VERSE PART 1] x1
[VERSE PART 2] x1
[CHORUS] x1
[VERSE PART 2] x5    (stupid peter pan rapping part)
-silence 2 measures-
[CHORUS*] x1
[INTERLUDE] x1
[ENDING] x6
[OUTRO] x2


| /  slide up
| \  slide down
| h  hammer-on
| p  pull-off
| ~  vibrato
| +  harmonic
| x  Mute note
===============================================================================
            
Submit corrections

comments powered by Disqus
↑ Back to top | Grouplove Bass for Tongue Tied. Lyrics for acoustic guitar and electric guitar. Tablatures and chords are parodies/interpretations of the original songs. You may use it for private study, scholarship, research or language learning purposes only