» » »

Grinspoon, Tang Tabs (ver.1)

Artists:  A B C D E F G H I J K L M N O P Q R S T U V W X Y Z # 

Tang Tabs (ver.1)

Grinspoon Tabs
Rating:
0/5 (0 votes)
Tang lessons Tabs too difficult? Try these video lessons and learn fast
                Drop D Tuning (low to high: D A D G B E)


Intro

Sorry not yet!


Chorus

|----------------------------------------------------------|
|----------------------------------------------------------|
|----------------------------------------------------------|
|-55-x-5-55-x-5-88-8-8-88-8-44-x-4-44-x-4-77-7-10-10-10-10-|
|-55-x-5-55-x-5-88-8-6-66-6-44-x-4-44-x-4-77-7-8--8--8--8--|
|-55-x-5-55-x-5-88-8--------44-x-4-44-x-4-77-7-------------|


Part

    gradual bend...........
|---------------------------|
|---------------------------|
|---5b-5b-5b-5b-5b-5b-5b-5b-|
|-5-------------------------|
|-5-------------------------|
|-5-------------------------|

|-------------------------|
|-------------------------|
|-------------------------|
|-44-x-4-44-x-4-44-x-4-44-|
|-44-x-4-44-x-4-44-x-4-44-|
|-44-x-4-44-x-4-44-x-4-44-|


Part

|----------|
|----------|
|----------|
|----------|
|-------4\-|
|-5v...-4\-|


Solo

  (play three times)
|------------------------|
|------------------------|
|-3-3p2p0-3p2p0-0-2-22-3-|
|------------------------|
|------------------------|
|------------------------|

|--------------------------0-----|
|------------------------0---0---|
|-3-3p2p0-3p2p0-0-2-22-3-------0-|
|--------------------------------|
|--------------------------------|
|--------------------------------|


Interlude

|---------------------------------|
|---------------------------------|
|---------------------------------|
|-3-3-33-33--5-5-55-5-8-8-8-8-8-8-|
|-3-3-33-33--5-5-55-5-6-6-6-6-6-6-|
|-3-3-33-33--5-5-55-5-------------|
            
Submit corrections

comments powered by Disqus
↑ Back to top | Grinspoon Tabs for Tang. Lyrics for acoustic guitar and electric guitar. Tablatures and chords are parodies/interpretations of the original songs. You may use it for private study, scholarship, research or language learning purposes only