» » »

Grinspoon, Secret Agent Tabs (ver.1)

Artists:  A B C D E F G H I J K L M N O P Q R S T U V W X Y Z # 

Secret Agent Tabs (ver.1)

Grinspoon Tabs
Rating:
0/5 (0 votes)
Secret Agent lessons Tabs too difficult? Try these video lessons and learn fast
                eadgbe tuning

ok this is mi 1st tab so some is wrong

lost gospel play with 2 gtars but this only uses one

enjoy!..

intro
e|---------------------------------------------------------------------------|
B|---5-4--------------3--2---------------------------------------------------|
G|-2--2------4--3---0--0------2---1------------------------------------------|
D|---------2--2-------------0---0--------------------------------------------|
A|---------------------------------------------------------------------------|
E|---------------------------------------------------------------------------|

verse
e|---------------------------------------------------------------------------|
B|-5-5-4-5---------3-3-2-3---------------------------------------------------|
G|---------4-4-3-4----------2-2-1-2------------------------------------------|
D|---------------------------------------------------------------------------|
A|---------------------------------------------------------------------------|
E|---------------------------------------------------------------------------|

chorus
e|-----------|
B|-----------|
G|-7---------|
D|-7------2--|   do that 3 times then go to the verse
A|-5------2--|
e{--------0--|


then do chorus 3 times then interlude

interlude
e|----------------------------------|
B|----------------------------------|
G|-6-6-x-x-x-4----------------------|
D|-6-6-x-x-x-4-7---7-7-x-x-x-5-2----|    do this 3 times then do this ..
A|-4-4-x-x-x-2-7---7-7-x-x-x-5-2----|
E|-------------5---5-5-x-x-x-3-0----|


e|---------------------------------------------------------------------------|
B|---------------------------------------------------------------------------|
G|-6-6-x-x-x-9-9-------------------------------------------------------------|
D|-6-6-x-x-x-9-9-7--7-7-x-x-x-5-2--------------------------------------------|
A|-4-4-x-x-x-7-7-7--7-7-x-x-x-5-2--------------------------------------------|
E|---------------5--5-5-x-x-x-3-0--------------------------------------------|

palm mute this bit
e|-----------------------------------------------------------------------------|
B|-----------------------------------------------------------------------------|
G|-----------------------------------------------------------------------------|
D|-2-2-2-2-2-2-2-2-2-2-2-2-2-2-2-2-5-5-5-5-5-5-5-5-5-5-5-5-5-5-5-5-7-7-7-7-A|--|
E|-----------------------------------------------------------------------------|

e|---------------------------------------------------------------------------|
B|---------------------------------------------------------------------------|
G|---------------------------------------------------------------------------|
D|7-7-7-7-7-7-7-7-7-7-7-7-9-9-9-9-9-9-9-9-9-9-9-9-9-9-9-9--------------------|
A|---------------------------------------------------------------------------|
E|---------------------------------------------------------------------------|

then do chorus !!!

then do verse bit palm muted !!

then release!!

done!!!

enjoy
            
Submit corrections

comments powered by Disqus
↑ Back to top | Grinspoon Tabs for Secret Agent. Lyrics for acoustic guitar and electric guitar. Tablatures and chords are parodies/interpretations of the original songs. You may use it for private study, scholarship, research or language learning purposes only