» » »

Save Me Tabs (ver.1)

Artists:  A B C D E F G H I J K L M N O P Q R S T U V W X Y Z # 

Save Me Tabs (ver.1)

Grinspoon
Rating:
0/5 (0 votes)

Hard to play? Try these video lessons and learn fast.
                Drop D Tuning (low to high: D A D G B E)

Intro

|--------------|-------------------------------------------------|
|--------------|-------------------------------------------------|
|--------------|-10\7--7\5----------------10\7--7\3--------------|
|--|==BASS==|--|-------------0-3-5-3-0-----------------0-3-5-3-0-|
|--------------|--8\5--5\3---0-3-5-3-0-----8\5--5\3----0-3-5-3-0-|
|--------------|-------------0-3-5-3-0-----------------0-3-5-3-0-|

Pre-Chorus

|------------------------------------------------|
|------------------------------------------------|
|-7-xx-5/7-7-xxxx-10\7-7--7-xx-5/7-7-xxxx-10\7-7-|
|---xx-------xxxx-----------xx-------xxxx--------|
|-5-xx-3/5-5-xxxx-8-\5-5--5-xx-3/5-5-xxxx-8-\5-5-|
|-0----0------------------0----0-----------------|

Chorus

|-------------------------------------------------|
|-------------------------------------------------|
|-10\7--7\5----------------10\7--7\3--------------|
|-------------0-3-5-3-0-----------------0-3-5-3-0-|
|--8\5--5\3---0-3-5-3-0-----8\5--5\3----0-3-5-3-0-|
|-------------0-3-5-3-0-----------------0-3-5-3-0-|


Bridge

|--------------------------------|
|--------------------------------|
|--------------------------------|
|-0-2-3-2-3-2-0----0-2-3-2-3-2-0-|
|-0-2-3-2-3-2-0----0-2-3-2-3-2-0-|
|-0-2-3-2-3-2-0----0-2-3-2-3-2-0-|
            
Hard to play? Try these video lessons and learn fast. | Correct




comments powered by Disqus
↑ Back to top | Tablatures and chords are parodies/interpretations of the original songs. You may use it for private study, scholarship, research or language learning purposes only