» » »

Repeat Tabs (ver.1)

Artists:  A B C D E F G H I J K L M N O P Q R S T U V W X Y Z # 

Repeat Tabs (ver.1)

Grinspoon
Rating:
0/5 (0 votes)
Tabs too difficult? Try these video lessons and learn fast.
                Drop D Tuning (low to high: D A D G B E)

Intro

(play two times)
|----------------------------------------------|
|----------------------------------------------|
|----------------------------------------------|
|--5-3-0-2-3-2-0-3-5-3-6-5-5-3-0-2-3-2-0--6-6--|
|--5-3-0-2-3-2-0-3-5-3-6-5-5-3-0-2-3-2-0--6-6--|
|--5-3-0-2-3-2-0-3-5-3-6-5-5-3-0-2-3-2-0--6-6--|


Verse

w/wah
(play 4 times) (play two times)
|-------------------------|--------------------|
|-------------------------|--------------------|
|-------------------------|--------------------|
|--0-3-0-3-3---0-3-0-3-2--|--5-5-5-5--2-2-2-2--|
|--0-3-0-3-3---0-3-0-3-2--|--5-5-5-5--2-2-2-2--|
|--0-3-0-3-3---0-3-0-3-2--|--5-5-5-5--2-2-2-2--|

1. She looked so pretty, pity, perfect stranger
Sold connections for the buy in major
Lobby ***ing with the bird board terf board
Need a licence to observe
And I swear they'd never lie
Just shows how much that

2. Ugly race day and a rain face loser
Printing money on parole beats loser
Your hands stuck in your pocket
Digress, confess you offered
But you burnt the house down
Just like the movies

3. Pretty past you forgot my story
Lost a kitten on the road to glory
I know I could have been there
But I wasn't so it doesn't matter
Patch me another line
We'll laugh about it


Chorus

|---------------------------------------------|
|---------------------------------------------|
|---------------------------------------------|
|--0-0-00-8-8-88-3-3-33/10-10-10-10-10-12-10--|
|--0-0-00-8-8-88-3-3-33/10-10-10-10-10-12-10--|
|--0-0-00-8-8-88-3-3-33/10-10-10-10-10-12-10--|

1. She goes, she goes, she goes round round round
She goes, she goes

2. She goes, she goes, she goes round and round
She goes, she goes, yeah

3. He knows, he knows, he knows nothing now (x2)
Seagulls, seagulls, seagulls fly around
She knows, she goes, yeah


Interlude

(play two times)
|--------------------------------------------------------------|
|--------------------------------------------------------------|
|--------------------------------------------------------------|
|--6-6-6-6-6-6-6--6-6-6-6-6-6-6--0-0-0-0-0-0-0--0-0-0-0-0-0-0--|
|--6-6-6-6-6-6-6--6-6-6-6-6-6-6--0-0-0-0-0-0-0--0-0-0-0-0-0-0--|
|--6-6-6-6-6-6-6--6-6-6-6-6-6-6--0-0-0-0-0-0-0--0-0-0-0-0-0-0--|

|--------------------------------------------------------------|
|--------------------------------------------------------------|
|--------------------------------------------------------------|
|--6-6-6-6-6-6-6--6-6-6-6-6-6-6--0-2-0-2-3-2-0--0-2-0-2-3-2-0--|
|--6-6-6-6-6-6-6--6-6-6-6-6-6-6--0-2-0-2-3-2-0--0-2-0-2-3-2-0--|
|--6-6-6-6-6-6-6--6-6-6-6-6-6-6--0-2-0-2-3-2-0--0-2-0-2-3-2-0--|

|--------------------------------|
|--------------------------------|
|--------------------------------|
|--6-6-6-6-6-6-6--6-6-6-6-6-6-6--|
|--6-6-6-6-6-6-6--6-6-6-6-6-6-6--|
|--6-6-6-6-6-6-6--6-6-6-6-6-6-6--|
            
Tabs too difficult? Try these video lessons and learn fast.


comments powered by Disqus
↑ Back to top | Tablatures and chords are parodies/interpretations of the original songs. You may use it for private study, scholarship, research or language learning purposes only