» » »

Protest Tabs (ver.1)

Artists:  A B C D E F G H I J K L M N O P Q R S T U V W X Y Z # 

Protest Tabs (ver.1)

Grinspoon
Rating:
0/5 (0 votes)

Hard to play? Try these video lessons and learn fast.
                Drop D Tuning (low to high: D A D G B E)

Intro

(steel-string acoustic gtr.)
|------------------------------------------------------------|
|------------------------------------------------------------|
|-------------------------------4--4--------------4--4--4--4-|
|-x--x--x--x--1--1--4--4--6--6--4--4--4--4--4--4--4--4--4--4-|
|-x--x--x--x--1--1--4--4--6--6--2--2--4--4--4--4--2--2--2--2-|
|-x--x--x--x--1--1--4--4--6--6--------4--4--4--4-------------|

|-------------------------------------------------------------|
|-------------------------------------------------------------|
|-------------------4--4----4----4----6--6-6--6-6---6-6-6-6---|
|-1--1--4--4--6--6--4--4----4----4----6--6-6--6-6---6-6-6-6---|
|-1--1--4--4--6--6--2--2----2----2----4--4-4--4-4---4-4-4-4-0-|
|-1--1--4--4--6--6------------------------------------------0-|


Chorus

|-------------------------------------------------------|
|-------------------------------------------------------|
|-------6--6--4--4--4--4---------6--6--4--4--4--44-4444-|
|-4--4--6--6--4--4--4--4---4--4--6--6--4--4--4--44-4444-|
|-4--4--4--4--2--2--2--2---4--4--4--4--2--2--2--22-2222-|
|-4--4---------------------4--4-------------------------|

|------------------------------------------------------------------------|
|------------------------------------------------------------------------|
|-------6--6--4--4--4--4----------6--6--4--4--4--4----4----4----4--------|
|-4--4--6--6--4--4--4--4---4-44-4-6--6--4--4--4--4----4----4----4-----4~-|
|-4--4--4--4--2--2--2--2---4-44-4-4--4--2--2--2--2----2----2----2-----4~-|
|-4--4---------------------4-44-4-------------------------------------4~-|
rit. (end)
            
Hard to play? Try these video lessons and learn fast. | Correct




comments powered by Disqus
↑ Back to top | Tablatures and chords are parodies/interpretations of the original songs. You may use it for private study, scholarship, research or language learning purposes only