» » »

Off Piste Tabs (ver.1)

Artists:  A B C D E F G H I J K L M N O P Q R S T U V W X Y Z # 

Off Piste Tabs (ver.1)

Grinspoon
Rating:
0/5 (0 votes)

Hard to play? Try these video lessons and learn fast.
                Grinspoon - off piste

intro/verse

e--------------------------------------------
b--------------------------------------------
g--------------------------------------------
d-3333-33-3-33-3-33-3/2-22-2-22-2/3-5555-5/4-
a-3333-33-3-33-3-33-3/2-22-2-22-2/3-5555-5/4-
e-1111-11-1-11-1-11-1---00-0-00-0---3333-3---
pm.... ..   ..   ..     ..   ..     ....
e--------------------------------------------------
b--------------------------------------------------
g-33-3-33-3-33-3-33-3/2-22-2-22-2/3-55-55-55-55----
d-33-3-33-3-33-3-33-3/2-22-2-22-2/3-55-55-55-55----
a-11-1-11-1-11-1-11-1---00-0-00-0---33-33-33-33----
e--------------------------------------------------
pm..   ..   ..   ..     ..   ..     ..    .. 
e--------------------------------------------
b--------------------------------------------
g--------------------------------------------
d-33-3-33-3-33-3-33-3/2-22-2-22-2/3-5555-5/4-
a-33-3-33-3-33-3-33-3/2-22-2-22-2/3-5555-5/4-
e-11-1-11-1-11-1-11-1---00-0-00-0---3333-3---
  ..   ..   ..   ..     ..   ..     ....
e-----------------------------------------------
b-----------------------------------------------
g-33-3-33-3-33-3-33-3/2-22-2-22-2/3-55555555----
d-33-3-33-3-33-3-33-3/2-22-2-22-2/3-55555555----
a-11-1-11-1-11-1-11-1---00-0-00-0---33333333----
e-----------------------------------------------
pm..   ..   ..   ..     ..   ..     
e--------------------------------------------
b--------------------------------------------
g--------------------------------------------
d-33-3-33-3-33-3-33-3/2-22-2-22-2/3-5555-5/4-
a-33-3-33-3-33-3-33-3/2-22-2-22-2/3-5555-5/4-
e-11-1-11-1-11-1-11-1---00-0-00-0---3333-3---
pm..   ..   ..   ..     ..   ..     ....
e-----------------------------------------------
b-----------------------------------------------
g-33-3-33-3-33-3-33-3/2-22-2-22-2/3-55555555----
d-33-3-33-3-33-3-33-3/2-22-2-22-2/3-55555555----
a-11-1-11-1-11-1-11-1---00-0-00-0---33333333----
e-----------------------------------------------
pm..   ..   ..   ..     ..   ..     

chorus

e----------------0-00000-0-0-0-0-
b-333333-5-5-5-5-1-11111-2-2-2-2-
g-222222-2-2-2-2-2-22222-2-2-2-2-
d----------------2-22222-2-2-2-2-
a----------------0-00000-0-0-0-0-
e--------------------------------

e-------------------00000000-00000000-
b-------------------00000000-11111111-
g-44444444-44444444-11111111-22222222-
d-44444444-44444444-22222222-22222222-
a-22222222-22222222-22222222-00000000-
e-------------------00000000----------

Post Chorus

Guitar one

e--------------------------------------------
b--------------------------------------------
g--------------------------------------------
d-33-3-33-3-33-3-33-3/2-22-2-22-2/3-5555-5/4-
a-33-3-33-3-33-3-33-3/2-22-2-22-2/3-5555-5/4-
e-11-1-11-1-11-1-11-1---00-0-00-0---3333-3---
  ..   ..   ..   ..     ..   ..     ....
e-----------------------------------------------
b-----------------------------------------------
g-33-3-33-3-33-3-33-3/2-22-2-22-2/3-55555555----
d-33-3-33-3-33-3-33-3/2-22-2-22-2/3-55555555----
a-11-1-11-1-11-1-11-1---00-0-00-0---33333333----
e-----------------------------------------------
pm..   ..   ..   ..     ..   ..     

Guitar two

e------------------------------------------------------------------------
b-55555555-55555555-55555555-22222222-00000000-00000000-22222222-3/2/1-0-
g------------------------------------------------------------------------
d------------------------------------------------------------------------
a------------------------------------------------------------------------
e------------------------------------------------------------------------

verse2


e--------------------------------------------
b--------------------------------------------
g--------------------------------------------
d-33-3-33-3-33-3-33-3/2-22-2-22-2/3-5555-5/4-
a-33-3-33-3-33-3-33-3/2-22-2-22-2/3-5555-5/4-
e-11-1-11-1-11-1-11-1---00-0-00-0---3333-3---
pm..   ..   ..   ..     ..   ..     ....
e-----------------------------------------------
b-----------------------------------------------
g-33-3-33-3-33-3-33-3/2-22-2-22-2/3-55555555----
d-33-3-33-3-33-3-33-3/2-22-2-22-2/3-55555555----
a-11-1-11-1-11-1-11-1---00-0-00-0---33333333----
e-----------------------------------------------
pm..   ..   ..   ..     ..   ..     

play this twice
then
play chorus
then play this

guitar one

e-----------------------------------------------
b-----------------------------------------------
g-----------------------------------------------
d-3333-33-3-33-3-33-3/2-22-2-22-2/3-55-5-55-5/4-
a-3333-33-3-33-3-33-3/2-22-2-22-2/3-55-5-55-5/4-
e-1111-11-1-11-1-11-1---00-0-00-0---33-3-33-3---
pm.... ..   ..   ..     ..   ..     ..   ..
e--------------------------------------------------
b--------------------------------------------------
g-33-3-33-3-33-3-33-3/2-22-2-22-2/3-55-55-55-55----
d-33-3-33-3-33-3-33-3/2-22-2-22-2/3-55-55-55-55----
a-11-1-11-1-11-1-11-1---00-0-00-0---33-33-33-33----
e--------------------------------------------------
pm..   ..   ..   ..     ..   ..     ..    .. 
e--------------------------------------------
b--------------------------------------------
g--------------------------------------------
d-33-3-33-3-33-3-33-3/2-22-2-22-2/3-5555-5/4-
a-33-3-33-3-33-3-33-3/2-22-2-22-2/3-5555-5/4-
e-11-1-11-1-11-1-11-1---00-0-00-0---3333-3---
  ..   ..   ..   ..     ..   ..     ....
e--------------------------------------------------
b--------------------------------------------------
g-33-3-33-3-33-3-33-3/2-22-2-22-2/3-55-55-55-55----
d-33-3-33-3-33-3-33-3/2-22-2-22-2/3-55-55-55-55----
a-11-1-11-1-11-1-11-1---00-0-00-0---33-33-33-33----
e--------------------------------------------------
pm..   ..   ..   ..     ..   ..     ..    .. 

guitar two (listen for when to come in)

e--------------------------------------------------
b---------------------3*---------7*-----------5*---
g-5*---------2*------------------------------------
d--------------------------------------------------
a--------------------------------------------------
e--------------------------------------------------

verse3 (play the whole thing twice)

e--------------------------------------------------
b--------------------------------------------------
g-33-3-33-3-33-3-33-3/2-22-2-22-2/3-55-55-55-55----
d-33-3-33-3-33-3-33-3/2-22-2-22-2/3-55-55-55-55----
a-11-1-11-1-11-1-11-1---00-0-00-0---33-33-33-33----
e--------------------------------------------------
pm..   ..   ..   ..     ..   ..     ..    .. 
e-----------------------------------------------
b-----------------------------------------------
g-33-3-33-3-33-3-33-3/2-22-2-22-2/3-55555555----
d-33-3-33-3-33-3-33-3/2-22-2-22-2/3-55555555----
a-11-1-11-1-11-1-11-1---00-0-00-0---33333333----
e-----------------------------------------------
pm..   ..   ..   ..     ..   ..     

play chorus x2

Outro

e----------------------------------------------------------------
b----------------------------------------------------------------
g----------------------------3*--------2*--------5*--------------
d-3*------2*-------5*--------3*--------2*--------5*--------3*----
a-3*------2*-------5*--------1*--------0*--------3*--------3*----
e-1*------0*-------3*--------------------------------------1*----
            
Hard to play? Try these video lessons and learn fast. | Correct




comments powered by Disqus
↑ Back to top | Tablatures and chords are parodies/interpretations of the original songs. You may use it for private study, scholarship, research or language learning purposes only