» » »

Grinspoon, Hate Tabs (ver.1)

Artists:  A B C D E F G H I J K L M N O P Q R S T U V W X Y Z # 

Hate Tabs (ver.1)

Grinspoon Tabs
 Rating:
4/5 (4 votes)
Hate lessons Tabs too difficult? Try these video lessons and learn fast
1
                

INTRO:
  G                            G
E|3-3-3------------------------3-3-3------------------------------|
B|0-0-0------------------------0-0-0------------------------------|
G|0-0-0------------------------0-0-0------------------------------|
D|0-0-0------------------------0-0-0------------------------------|
A|2-2-2------------------------2-2-2------------------------------|
E|3-3-3-3-x-x-3-x-x-3-x-x------3-3-3-3-x-x-3-x-x-3-x-x------------|


VERSES AND RIFFS:
  G                          Em
E|3-3-3----------------------0-0-0-------------------------------|
B|0-0-0----------------------0-0-0-------------------------------|
G|0-0-0----------------------0-0-0-------------------------------|
D|0-0-0----------------------2-2-2-------------------------------|
A|2-2-2----------------------2-2-2-------------------------------|
E|3-3-3-3-x-x-3x-x-3x-x------0-0-0-0-x-x-0-x-x-0-x-x-------------|


There is a silent bit at about 3:22 minutes, and then theres like 3 guitar strums after the silent bit I havent worked them out, you’ll have to do that yourself sorry!!!


The verses and riffs pretty much repeat themselves through the whole song until, 38 seconds in up until 2:38 minutes in the violins take the 0 or 3 then muted strings part!


So yeah this is like one of my first tabs that I really needed to listen to it…so yeah send comments to my email address and im sorry if it ain’t right but it’s close enough for now…ENJOY N BYEEEEEEEE!!!!!!!!!!!


Yours Musically Aaron Moor!!!!!!!!!!!!!!!!!!
            
Submit corrections

comments powered by Disqus
↑ Back to top | Grinspoon Tabs for Hate. Lyrics for acoustic guitar and electric guitar. 1 Tablatures and chords are parodies/interpretations of the original songs. You may use it for private study, scholarship, research or language learning purposes only