» » »

Hard Act To Follow Tabs (ver.2)

Artists:  A B C D E F G H I J K L M N O P Q R S T U V W X Y Z # 

Hard Act To Follow Tabs (ver.2)

Grinspoon
Rating:
0/5 (0 votes)

Tabs too difficult? Try these video lessons and learn fast.
                By Grinspoon - Hard Act to Follow


|--------------------------------------------------------------------|
|-------------------------------------------------------- 9---7------|
|---------------------------------------------7----------9---7-------|
|--------4---5---7---4---5-----9-----9----------9--------------------|
|--------------------------------------------------------------------|
|--------------------------------------------------------------------|

|------------------------------------------------------|
|---------12-----------------14v-----------------------|
|----11b----11—11v---------------------7---9-----------|
|------------------------------------------------------|
|------------------------------------------------------|
|------------------------------------------------------|


Play this 5 times
|------------7-------|
|---7--------7-------|
|-------9b-----------|
|--------------------|
|--------------------|
|--------------------|

|-9b----12b----10-----------|
|-------------------10--10--|
|---------------------------|
|---------------------------|
|---------------------------|
|---------------------------|
            
Tabs too difficult? Try these video lessons and learn fast.


comments powered by Disqus
↑ Back to top | Tablatures and chords are parodies/interpretations of the original songs. You may use it for private study, scholarship, research or language learning purposes only