» » »

Gun For Hire Tabs (ver.1)

Artists:  A B C D E F G H I J K L M N O P Q R S T U V W X Y Z # 

Gun For Hire Tabs (ver.1)

Grinspoon
Rating:
0/5 (0 votes)

Hard to play? Try these video lessons and learn fast.
                Hi everyone.  First tab.  Not that hard to play. A great song by Grinspoon.
ENJOY!


Grinspoon – Gun for hire

Drop D

Intro					x2
|--------------------------------------------------------------------|
|--------------------------------------------------------------------|
|--------------------------------------------------------------------|   Both
|---0------0-3-0---6--5---0-3-0---1---0------0-3-0---6--5--- 0-3-0---|  Guitars
|---0------0-3-0---6--5---0-3-0---1---0------0-3-0---6--5--- 0-3-0---|
|---0------0-3-0---6--5---0-3-0---1---0------0-3-0---6--5--- 0-3-0---|

|--------------------------|
|--------------------------|
|--------------------------|
|-------0-3-0--2-0---------|
|-------0-3-0--2-0---------|
|-------0-3-0--2-0---------|
Finish the intro with this

Verse
|-------------------------------------------------------------------|
|-------------------------------------------------------------------|
|-------------------------------------------------------------------|
|-------------------------------------------------------------------| Both Guitars
|----------3--5-------------------------3h4-------------------------|
|-----0-0---0--0-0-0-3-0-0-5-0-0-0----------------------------------|
        .  .     .    .  .  .      .  .      .   .   .         .    .   .


|-----------------------------------------------------------------|
|-----------------------------------------------------------------|
|-----------------------------------------------------------------| Both
|------3-00-3-00-3-0-3-00-3-00-3h5--------------------------------| Guitars
|------3-00-3-00-3-0-3-00-3-00-3h5--------------------------------|
|------3-00-3-00-3-0-3-00-3-00-3h5--------------------------------|
           . .      . .      .      . .     . .

Chorus
|-----------------------------------------------------------------------|
|-----------------------------------------------------------------------|
|-----------------------------------------------------------------------|
|------6-6------------5-5------------3-3------------0-0-----------------|
|------6-6------------5-5------------3-3------------0-0-----------------|
|------6-6------------5-5------------3-3------------0-0-----------------|
					Both Guitars
|---------------------------------------------------------------|
|---------------------------------------------------------------|
|---------------------------------------------------------------|
|------333333333333--555555555555-------------------------------|
|------333333333333--555555555555-------------------------------|
|------333333333333--555555555555-------------------------------|
Pm

Solo 1
Second guitar plays Intro

|--------------------------------------------------------------------------------|
|--------------------------------------------------------------------------------|
|-------------2---2h4p2--8-7--5h7p5--3--------------------------------|   Riff 1-|
|--------------------------------------------------------------------------------|
|--------------------------------------------------------------------------------|
|--------------------------------------------------------------------------------|
THEN
|--------------------------------------------------------------------------------|
|--------------------------------------------------------------------------------|
|-------------2---2h4p2--8-7--5h7p5------------------------------------|  Riff 2-|
|------------------------------------------=-------------------------------------|
|--------------------------------------------------------------------------------|
|--------------------------------------------------------------------------------|
THEN
|--------------------------------------------------------------------------------|
|--------------------------------------------------------------------------------|
|-------------2---2h4p2--8-7--5h7p5--3---------------------------------|  Riff 1-|
|--------------------------------------------------------------------------------|
|--------------------------------------------------------------------------------|
|--------------------------------------------------------------------------------|
THEN
|-------------------------------------------------------------------------------|
|-------------------------------------------------------------------------------|
|-------------2---2h4p2--8-7--5h7p5--5p3------------------------------|  Riff 3-|
|-------------------------------------------------------------------------------|
|-------------------------------------------------------------------------------|
|-------------------------------------------------------------------------------|

Verse
|-----------------------------------------------------------------|
|-----------------------------------------------------------------|
|-----------------------------------------------------------------|
|-----------------------------------------------------------------| First Guitar
|----------3--5-------------------------3h4-----------------------|
|-----0-0---0--0-0-0-3-0-0-5-0-0-0--------------------------------|
No PM

|----------------------------------------------------------------|
|----------------------------------------------------------------|
|----------------------------------------------------------------|
|------------------------------5-5-------------------------------| Second guitar
|------------------------------5-5-------------------------------|
|------------------------------5-5-------------------------------|
Plays this once in the middle
Listen to the song

|-----------------------------------------------------------|
|-----------------------------------------------------------|
|-----------------------------------------------------------| Both
|------3-00-3-00-3-0-3-00-3-00-3h5--------------------------| Guitars
|------3-00-3-00-3-0-3-00-3-00-3h5--------------------------|
|------3-00-3-00-3-0-3-00-3-00-3h5--------------------------|

Solo 2
SECOND GUITAR PLAYS VERSE
|--------------------------------------------------------------------------------------|
|--------------------------------------------------------------------------------------|
|---9999999999999999-1111111111111111-10b----------------------------------------------|
|---xxxxxxxxxxxxxxxx-xxxxxxxxxxxxxx--x-------------------------------------------------|
|---7777777777777777-99999999999999--12b-----------------------------------------------|
|--------------------------------------------------------------------------------------|

|--9b-9999--9b-9999--9b-99--10b-1010--11b-1111--12b-1212--13b---|
|---------------------------------------------------------------|
|---------------------------------------------------------------|
|---------------------------------------------------------------|
|---------------------------------------------------------------|
|---------------------------------------------------------------|
Play the notes while releasing the bend slowly


Verse
|--------------------------------------------|
|--------------------------------------------|
|--------------------------------------------|
|--------------------------------------------| Both Guitars
|----------3--5-------------------------3h4--|
|-----0-0---0--0-0-0-3-0-0-5-0-0-0-----------|
        .  .     .    .  .  .      .  .      .   .   .

Chorus
|--------------------------------------------------------------------------|
|--------------------------------------------------------------------------|
|--------------------------------------------------------------------------|
|------6-6------------5-5------------3-3------------0-0--------------------|
|------6-6------------5-5------------3-3------------0-0--------------------|
|------6-6------------5-5------------3-3------------0-0--------------------|
				Both Guitars
|--------------------------------------------------------------------|
|--------------------------------------------------------------------|
|--------------------------------------------------------------------|
|------333333333333--555555555555------------------------------------|
|------333333333333--555555555555------------------------------------|
|------333333333333--555555555555------------------------------------|
Pm

Intro
|----------------------------------------------------------------------------|
|----------------------------------------------------------------------------|
|----------------------------------------------------------------------------|    x1
|------0------0-3-0---6--5---0-3-0---1---0------0-3-0---6--5--- 0-3-0--------|
|------0------0-3-0---6--5---0-3-0---1---0------0-3-0---6--5--- 0-3-0--------|
|------0------0-3-0---6--5---0-3-0---1---0------0-3-0---6--5--- 0-3-0--------|
            
Hard to play? Try these video lessons and learn fast. | Correct




comments powered by Disqus
↑ Back to top | Tablatures and chords are parodies/interpretations of the original songs. You may use it for private study, scholarship, research or language learning purposes only