» » »

Gone Tomorrow Tabs (ver.2)

Artists:  A B C D E F G H I J K L M N O P Q R S T U V W X Y Z # 

Gone Tomorrow Tabs (ver.2)

Grinspoon
Rating:
0/5 (0 votes)

Hard to play? Try these video lessons and learn fast.
                Artist- Grinspoon
Title- Gone Tomorrow
Tuneing- Dadgbe

This Song Is In Drop D. Great Song From Grinspoon.
Hav Sum Fun Playin Dis.

INTRO

e-----------------------------------
b-----------------------------------
g-----------------------------------
d-----------6666------------4444----     X4
a-----------4444------------2222----
D-01-01-01-0-----01-01-01-0---------

VERSE

e----------------
b-6-X-6-X-6-X-6--
g-6-X-6-X-6-X-6--
d-6-X-6-X-6-X-6--  X2
a-4-X-4-X-4-X-4--
D----------------

PRE CHORUS

e---------------------------------------------------------------
b---------------------------------------------------------------
g---------------------------------------------------------------
d------------6666------------5555-----------4444-----------5555-
a------------4444------------3333-----------2222-----------3333-
D-01-01-01-0------01-01-01-0-----01-01-01-0-----01-01-01-0------

CHORUS

e------------------------------------
b------------------------------------
g------------------------------------
d----------66------------------------
a-66-44-33-44----X3------------------
D-66-44-33-----------11111111-44444--let ring

BRIDGE

e----------------------------------
b----------------------------------
g----------------------------------
d--------------------------4444---- X2
a------------10bend--------2222----
D-01-01-01-0----01-01-01-0---------

SOLO

e-------------------------------------
b-------------------------------------
g-------------------------------------
d-12-12-12-13bend-14-14-14-13bend-----
a-------------------------------------
D-------------------------------------

e-----------------------------------
b-----------------------------------
g-----------------------------------
d-12-12-12-13bend-14-14-14-13-13-13-
a-----------------------------------
D-----------------------------------

END BIT

e--------------------------------
b--------------------------------
g--------------------------------
d-------------------------66666--
a-111-111-111-111-111-111-44444--
D-111-111-111-111-111-111--------
  *** *** *** *** *** ***
  PM = *

e--------------------------------
b--------------------------------
g--------------------------------
d-------------------------44444--
a-111-111-111-111-111-111-22222--
D-111-111-111-111-111-111--------
  *** *** *** *** *** ***

SONG ORDER

INTRO
VERSE
INTRO X1
VERSE
PRE CHORUS
CHORUS
INTRO
VERSE
INTRO X1
VERSE
PRE CHORUS
CHORUS
BRIDGE
SOLO
CHORUS
END BIT

Sweet. Could ya Plz Rate My Tab ThNx.
SAM. M
            
Hard to play? Try these video lessons and learn fast. | Correct




comments powered by Disqus
↑ Back to top | Tablatures and chords are parodies/interpretations of the original songs. You may use it for private study, scholarship, research or language learning purposes only