» » »

Freezer Tabs (ver.1)

Artists:  A B C D E F G H I J K L M N O P Q R S T U V W X Y Z # 

Freezer Tabs (ver.1)

Grinspoon
Rating:
0/5 (0 votes)

Tabs too difficult? Try these video lessons and learn fast.
                Drop D Tuning (low to high: D A D G B E)

Intro

|------------|-----------|
|------------|-----------|
|------------|-----------|
|--|=BASS=|--|--7777-87--|
|------------|--5555-65--|
|------------|-----------|
                Alright!

 (play two times)
|-------------------------------------|
|-------------------------------------|
|-------------------------------------|
|----------------------------7777-87--|
|-5-5-555-1-1-1-1-1-7-7-777--5555-65--|
|-5-5-555-1-1-1-1-1-7-7-777-----------|


Chorus
|---------------------------------------------------------|
|---------------------------------------------------------|
|-5p0-5p0-5p0-5p0-5p0-5p0-5p0-5p0-5p0-5p0-5p0-5p0-5p-5b---|
|---------------------------------------------------------|
|---------------------------------------------------------|
|---------------------------------------------------------|


Solo


|---------------------------------------------------------|
|---------------------------------------------------------|
|---------------------------------------------------------|
|---------------------------------------------------------|
|---------------------------------------------------------|
|---------------------------------------------------------|


Outro

|-----------------|
|-----------------|
|-----------------|
|--5--------------|
|--5--------------|
|--5--------------|
            
Tabs too difficult? Try these video lessons and learn fast.


comments powered by Disqus
↑ Back to top | Tablatures and chords are parodies/interpretations of the original songs. You may use it for private study, scholarship, research or language learning purposes only