» » »

Don't Go Away Tabs (ver.2)

Artists:  A B C D E F G H I J K L M N O P Q R S T U V W X Y Z # 

Don't Go Away Tabs (ver.2)

Grinspoon
Rating:
0/5 (0 votes)

Hard to play? Try these video lessons and learn fast.
                don't go away
As recorded by Grinspoon
Words and Music by Philip Jamieson, Joey Hansen, and Pat Davern
Track Number: 12
Track Length: 2:55

Drop D Tuning (low to high: D A D G B E)

Intro

w/clean tone
|--------------------------------------|
|--------------------------------------|
|--------------------------------------|
|----7----7----7----7----7----7-777777-|
|-55-5-55-5-55-5-55-5-55-5-55-5-555555-|
|--------------------------------------|
pm pm pm pm pm pm

w/dist. tone
|-------------------------|
|-------------------------|
|-------------------9-9-9-|
|-7-7-7-9-9-9-7-7-7-------|
|-7-7-7-------7-7-7-------|
|-7-7-7-------7-7-7-------|

Chorus

|----------------------------------------------|
|----------------------------------------------|
|----------------------------------------------|
|-5-5-5-3-3-3-7-7-7----------------------------|
|-5-5-5-3-3-3-7-7-7----------------------------|
|-5-5-5-3-3-3-7-7-7/10-10-10-10-10-10-10-10-10-|


Interlude

(play 2 times)
|----------------------------------|
|----------------------------------|
|----------------------------------|
|--3-4-5-3-4-5-3-4-5-3-4-5-3-8-10--|
|--3-4-5-3-4-5-3-4-5-3-4-5-3-8-10--|
|--3-4-5-3-4-5-3-4-5-3-4-5-3-8-10--|

|--------------------------------------|
|--------------------------------------|
|--------------------------------------|
|-3-4-5-3-4-5-3-4-5-3-4-5-12-11-11-10\-|
|-3-4-5-3-4-5-3-4-5-3-4-5-12-11-11-10\-|
|-3-4-5-3-4-5-3-4-5-3-4-5-12-11-11-10\-|


Solo

Gtr. 2
|----------------------------|
|----------------------------|
|----------------------------|
|-10-9-10-10-12-15-14-17\(9)-| (gradual slide)
|----------------------------|
|----------------------------|
            
Hard to play? Try these video lessons and learn fast. | Correct




comments powered by Disqus
↑ Back to top | Tablatures and chords are parodies/interpretations of the original songs. You may use it for private study, scholarship, research or language learning purposes only